Cifra Club

Bad Fish

Sublime

Tab de baixo: Principal
exibições 6.665
G ----------------------------------------------------------------------------------------------------------
D ----------------7----------------------------------9---11--12\-----------------------------------------
A ------------7-----------------------------------------------------------2/3\2----------2/3\3-----------
E ----5--5--------------7---5---4---5---7----7----------------------3----------3--3-----------3-------


G ---------------------------------------------------------------------------------------------------------
D ---------7--7--7--7--7--7-----------------------------------------------------------------------------
A ------------------------------------7---7---------------------------------------------------------------
E ----5--------------------------5------------------------------------------------------------------------

thats the verse, and the pre-chorus is........................

                  two pints of booze, tell me are you a badfish too......................
G ---------------------------------------------------------------------------------------
D ---------------------------------------------------------------------------------------
A ---------------------------5--5-5--5--5-5-5-----------------------------------------
E ---5-5--5-5--5-5--5-5------------------------3-3-3-3-3-3-3-3-



_______________________________________________________
Contribuição: Mauricio Harm Bidone(bidone@brturbo.com.br)
Composição: Brad Nowell

0 comentários

    mostrar mais comentários

    Conseguiu tocar?

    0tocaram0ainda não

    Grave um vídeo tocando Bad Fish e mande pra gente!

    00:00 / 00:00
    outros vídeos desta música
    repetirqualidadeautomática
    Outro vídeos desta música
      00:00 / 00:00
      automática
      OK