Cifra Club

Caress Me Down

Sublime

Tab de baixo: Principal
exibições 2.836
G:|---------------------------------|-----------------------------|
D:|---------------------------------|-----------------------------|
A:|-----------------------------5-4-|-------------------------5-4-|
E:|-4-4-5-5-4-4-5-5-4-4-5-5-4-4-----|-5-5-4-4-5-5-4-4-5-5-4-4-----|

G:|----------------------------|------------------|------------------|
D:|----------------------------|------------------|------------------|
A:|-------------------------5-4|-------4----------|-------4----------|
E:|-5-5-4-4-5-5-4-4-5-5-4-4----|-5-5-5---5-5-5-5-4|-5-5-5---5-5-5-5-4|

G:|---------------------------------|-----------------------------|
D:|---------------------------------|-----------------------------|
A:|-----------------------------5-4-|-------------------------5-4-|
E:|-4-4-5-5-4-4-5-5-4-4-5-5-4-4-----|-5-5-4-4-5-5-4-4-5-5-4-4-----|

G:|----------------------------|------------------|------------------|
D:|----------------------------|------------------|------------------|
A:|-------------------------5-4|-------4----------|-------4----------|
E:|-5-5-4-4-5-5-4-4-5-5-4-4----|-5-5-5---5-5-5-5-4|-5-5-5---5-5-5-5-4|

_______________________________________________________
Contribuição: Cristina G.(crisgs@msn.com)

0 comentários

    mostrar mais comentários

    Conseguiu tocar?

    0tocaram0ainda não

    Grave um vídeo tocando Caress Me Down e mande pra gente!

    00:00 / 00:00
    outros vídeos desta música
    repetirqualidadeautomática
    Outro vídeos desta música
      00:00 / 00:00
      automática
      OK