Enviar cifraEntrar

Date Rape

Sublime

Cifra: Principal
exibições 36.555
Tom: C
INTRO
   

     E      F       E           F       E    A        A#       A
E|-------------------------------------------------------------------|
B|--9-9-9-10-10-10-9----9-9-9-10-10-10-9----14-14-14-15-15-15-14-----|
G|--9-9-9-10-10-10-9----9-9-9-10-10-10-9----14-14-14-15-15-15-14-----|
D|--9-9-9-10-10-10-9----9-9-9-10-10-10-9----14-14-14-15-15-15-14-----|
A|--7-7-7--8--8--8-7----7-7-7--8--8--8-7----12-12-12-13-13-13-12-----|
E|-------------------------------------------------------------------|


     E      F       A     G  F#  F   E
E|-----------------------------------------|
B|--9-9-9-10-10-10-9----12--11--10--9------|
G|--9-9-9-10-10-10-9----12--11--10--9------|
D|--9-9-9-10-10-10-9----12--11--10--9------|
A|--7-7-7--8--8--8-7----10---9---8--7------|
E|-----------------------------------------|


1º VERSO
Em
Let me tell you about a girl I know,
Em
Had a drink about a hour ago.
Am                              B           C      B
Sitting in a corner by herself, in a bar in downtown L.
Em
She heard a noise and she looked through the door.
Em
And saw a man she'd never seen before.
Am                            B                  C       B
Light skin, light blue eyes, a double-chin and a plastic smile.
Em
Well, her heart raced as he walked through the door 
Em
And took an empty seat next to her at the bar.
B                                          Am
"My brand new car is parked right outside. How'd ya like to go for a ride?"
    Em
And she said."Wait a minute I have to think."
Em
He said."That's fine. May I please buy you a drink"
B                               C                 B        Em
One drink turned into 3 or 4 and they left and got into his car and
     C              B           Em
they drove away some place real far.

Em
Now babe the time has come.
Em
How'd ya like to have a little fun?
           B                   C                 G               D     B
And she said." If we could only please be on our way, I will not run."
Em
That's when things got out of control.

Em         C    A
She didn't want to, 
Em     C   A
He had his way.
Em       C     A
She said."Let's Go"
Em       C     A
He said."No Way!"

B                                C  B
Come on babe it's your lucky day.
B                                        C  B
Shut your mouth, were gonna do it my way.
B                                  C
Come on baby don't be afraid, if it wasn't for date rape I'd never get laid.

SOLO

/ - Slide up
\ - Slide down
H - Hammer
P - Pick off
^ - Bend up the next note, so if it's says 10^12, bend the 10 up to a 12
~ - Vibrato (very little in this song, so don't overdo it)


|------------|----12-----|--------------------------------|
|-----8-10p8-|-10^^^10\8-|-10p8---8-----------------------|
|-7/9--------|-----------|------9---9-7~---7--------------|
|------------|-----------|---------------9---9-7h9P7------|
|------------|-----------|---------------------------10-7-|
|------------|-----------|--------------------------------|


|----------------|-----------------||--------|
|----------------|-10~~8~7~----8---||-10P8---|
|----------7-9-9-|---------7-9---9-||------9-|(This section is
|------7-9-------|-----------------||--------|played about 7x)
|-7-10-----------|-----------------||--------|
|----------------|-----------------||--------|

 ....PM.....


|----7--|
|-10^12-|
|-------|(This section is
|-------|played around 5x)
|-------|
|-------|


|-------------------------------------|
|-10^12-8---10P8----------------------|
|---------9------9-7-9-9-9-10-10-10-9-|
|-------------------------------------|
|-------------------------------------|
|-------------------------------------|



REPETE INTRO

2º VERSO
Em
He finished up and he started the car
Em
He turned around and drove back to the bar.
Am                               B               C            B
He said."Now baby don't be sad, in my opinion you weren't half-bad."
Em
She picked up a rock,threw it at the car, hit him in the head 
Em
now he's got a big scar.
Am                                           B        C     B
Come on party people won't you listen to me. Date Rape Stylee.
Em
The next day she went to her drawer, look up her local attorney at law,
B
went to the phone and filed the police report
  Am
and then she took the guy's ass to court.
Em
Well, the day he stood in front of the judge he screamed. 
Em
"She lies that little slut!"
B                                              C        B  E
The judge knew that he was full of shit and he gave him 25 yrs 
            C        B           E
And now his heart is filled with tears.

Em
That night in jail it was getting late. 
Em                                        B
He was butt-raped by a large inmate and he screamed.
        C               G               D      B
But the guards paid no attention to his cries.
Em
That's when things got out of control.

Em        C  A
The moral of the 
Em   C    A
Date rape story, 
Em         C    A
It does not pay to 
Em    C         A
Be drunk and horny.

B                               C  B
But that's the way it had to be. 
B                                         C  B
They locked him up and threw away the key.
B
Well, I can't take pity on men of his kind,
C
even though he now takes it in the behind.

(Em   C   A) VELOCIDADE AUMENTA

B                            C  B
that's the way it had to be.
B                                         C  B
They locked him up and threw away the key.
B
Well, I can't take pity on men of his kind, 
C
even though he now takes it in the behind. DATE RAPE

(ENTRADA SAXOFONE)
SAX TAB

|---------------------------------------------------------------------|
|------12------12-----------------------------------------------------|
|-9-12----9-12---------11------11-------12-------12-------------------|(x2)
|-----------------9-13----9-13----10-14----10-14----------12-------12-|
|---------------------------------------------------10-14----10-14----|
|---------------------------------------------------------------------|



Em
Nanana na na na
B
Nanana na na na
C
Nanana na na na
G
Nanana na na na

Em   C    A
She didn't want to 
Em   C    A
She didn't want to
Em   C    A
She didn't want to
Em   C    A
She didn't want to take it!!!
  • 1
  • 2
  • 3
  • 4
  • 5
  • 6
  • 7
  • 8
  • 9
  • 10
  • 11
  • 12
    Acordes para:
      Composição: SublimeColaboração e revisão:
      • jgy

      0 comentários

        mostrar mais comentários

        Conseguiu tocar?

        3tocaram0ainda não

        Grave um vídeo tocando Date Rape e mande pra gente!

        00:00 / 00:00
        outros vídeos desta música
        repetirqualidadeautomática
        • automática
        Outro vídeos desta música
          00:00 / 00:00
          automática
          • automática
          Acordes para:violão e guitarra
          dificuldadeexibiçõescontribuições
          3 versões de Tab de baixoexibiçõescontribuições
          2 versões de Guitar Proformatodownloadscontribuição
          fecharplay/pause subir/descer velocidade
            Acordes para:violão e guitarra
            acordes
            fechar
            OK