Enviar cifraEntrar

Santeria

Sublime

Cifra: Principal
exibições 499.466
Tom: E
Intro: E  G#  C#m  B


E|----------------------------------------------------------------------|
B|-----------------------------4-----------------------5---------7------|
G|-----9----------9--------------5-------5-------6-4/6---6---------8----|
D|---9---9------9---9-9------------6---6-------6-----------6---------9--|
A|-7-------7--7---------7----6-------6----4-4----------------7----------|
E|-------------------------4-----------------------------------7--------|


Verso 1:
             E                        G#
I don't practice santeria i ain't got no crystal ball
     C#m                            B
I had a million dollars but i'd  i'd spend it all
     E                                 G#
If i could find that heina and that sancho she's found
            C#m                      B
Well i'd pop a cap in sancho and i'd   slap her down

Refrão:
A        B             E   C#m
All i really wanna know my baby
A        B            E   C#m      A
All i really wanna say i can't define
       B            E    C#m
It's love that i need
A          B
But my soul will have to

Verso 2:
             E                        G#
Wait 'till i get back  find a heina of my own
     C#m                            B
Daddy's gonna love one and all
     E                                 G#
I feel the break  feel the break  feel the break
            C#m                      B
And i gotta live it up

Oh yeah  uh huh  well i swear that i

Refrão:
A        B             E   C#m
All i really wanna know my baby

A        B            E   C#m      A
All i really wanna say i can't define
       B            E    C#m
That love will make it go
A          B
But my soul will have to

Solo:

E|--------------------------------------------------------------|
B|--------------------------------------------------------------|
G|-----------9-11b11-9-8-8\6-8b---------------------------------|
D|------9-11----------------------------------------------------|
A|7-9/11--------------------------------------------------------|
E|--------------------------------------------------------------|


E|--------------------------------------------------------------|
B|--------------------------------------------------------------|
G|6-6p4-----4---------------------------------------------------|
D|-------6-----4b2--4p2-----2-----------------------------------|
A|-----------------------4-----4--------------------------------|
E|--------------------------------------------------------------|


E|--------------------------------------------------------------|
B|-------------------------5------------------------------------|
G|--------------------4h6---------------------------------------|
D|-------------4h5h6--------------------------------------------|
A|------2h3h4---------------------------------------------------|
E|2h3h4---------------------------------------------------------|


E|-----9--------------------------------------------------------|
B|12b----12-9---------------------------------------------------|
G|-------------11b9-----9---------------------------------------|
D|-------------------11---11p9-----------9--------10----10------|
A|------------------------------11p9h11----9-7-11----11---------|
E|--------------------------------------------------------------|


E|----9--------------9------------------------------------------|
B|11-----9------11-------9------11------------------------------|
G|11b-------9---11b---------9---11b--11b-9-11-9-----------------|
D|--------------------------------------------------------------|
A|--------------------------------------------------------------|
E|--------------------------------------------------------------|


Refrão:
A        B             E   C#m
All i really wanna say my baby
A        B            E   C#m      A
All i really wanna say is i've got mine
       B            E    C#m
And i'll make it yes i'm comin' up
A          B
Tell sanchito that if

Verso 3:
E                                G#
He knows what is good for him he best go run and hide
C#m                B
Daddy's got a new 45
   E                         G#
And i won't think twice to stick that barrel straight down sancho's throat
  C#m                            B
Believe me when i say that i've got something for his punk ass

Refrão:
A        B             E   C#m
Well i really wanna know my baby
A        B            E   C#m      A
What i really wanna say is there's just one way back
       B            E    C#m
And i'll make it
Yeah my soul will have to wait
  • 1
  • 2
  • 3
  • 4
  • 5
  • 6
  • 7
  • 8
  • 9
  • 10
  • 11
  • 12
    Acordes para:

      0 comentários

        mostrar mais comentários

        Conseguiu tocar?

        32tocaram2ainda não

        Grave um vídeo tocando Santeria e mande pra gente!

        00:00 / 00:00
        outros vídeos desta música
        repetirqualidadeautomática
        • automática
        Outro vídeos desta música
          00:00 / 00:00
          automática
          • automática
          5 versões de Tab de baixoexibiçõescontribuições
          1 versão de Tab de bateriaexibiçõescontribuições
          1 versão de Tab de gaitaexibiçõescontribuições
          fecharplay/pause subir/descer velocidade
            acordes
            fechar
            OK
            Feedback