Enviar cifraEntrar

What I Got

Sublime

Cifra: Principal
exibições 170.950
Tom: G
Intro / Versos:


     D               G
E|---------------------------------|
B|------3---------------3----------|
G|---------2----2----------0---0---|
D|---0-0-----0---------------0-----|
A|---------------------------------|
E|------------------3-3------------|


Early in the morning
Risin' to the street
Light me up that cigarette
And I'll strap shoes on my feet

Got to find a reason
Reason things went wrong
Got to find a reason
Why my money's all gone

I got a dalmation
I can still get high
I can play the guitar
Like a motherfuckin' riot
Solo:

       G       D     G   D     G   D           G            D
E|-----------------|---------|-----------10--------------------|
B|---------6-------|-7-5-3-3-|------10h12--12-12p10-13-12-10---|
G|-----5-7---7-5-7-|-7-5-4-4-|-11h12------------------------12^|
D|---7-------------|---------|---------------------------------|
A|-----------------|---------|---------------------------------|
E|-----------------|---------|---------------------------------|


well, life is...
So love the one you got
'Cuz you might get run over
Or you might get shot

Never start no static
I just get it off my chest
Never Had a battle
with no Bullet Broof Vest

Take a small example
Take a tip-ta-tip from me
Take all of your money
Give it up to charity

Love is what I got
It's within my reach
the Sublime styles
Dealt straight from Long Beach

It all comes back to you
You'll finally get what you deserve
Try 'n test that
Your bound to get served

Love's what I got
Don't start a riot
You'll feel it when
the dance get's hot

(refrão com solo)

Love is
What i got
I said remember that
Love is
What i got
Now remember that

(refrão)

Love is
What i got
I said remember that
Love is
What i got

I don't cry
When my dog runs away
I don't get angry
At the bills I have to pay

I don't get angry
When my mom smokes pot
Hits the bottle
And goes right to the rock

Fuckin' and fightin'
It's all the same
Livin with Louie Dog
Is the only way to stay sane

Let the lovin'
Let the lovin' come back to me

(refrão)

Love is
What i got
I said remember that
Love is
What i got
Now remember that
Love is
What i got
I said remember that
Love is
What i got
Solo:

       G       D     G   D     G   D           G            D          G
E|-----------------|---------|-------------10-7-7----8-7------------------|
B|---------6-------|-7-5-----|-------10-12--------10-----10-10b11-8-10----|
G|-----5-7---7-5-7-|-7-5-7-7-|-11-12---------------------------------10-7-|
D|---7-------------|-----7-7-|--------------------------------------------|
A|-----------------|---------|--------------------------------------------|
E|-----------------|---------|--------------------------------------------|


(solo - último refrão)

E|------------------|---------------------------|-----------------------------|
B|--7---7---7---7---|-7b8r7-7-7b8r7-7-7b8r7-7---|-------------------7---7---7-|
G|----7---7---7---7-|-------------------------7-|-7-5-5-4-2-2-2-4-2---7---7---|
D|------------------|---------------------------|-----------------------------|
A|------------------|---------------------------|-----------------------------|
E|------------------|---------------------------|-----------------------------|


(solo final - distorção)

E|------------------------------8-7-7-7-5------|
B|---------------------------------------------|
G|------------------------7b8r7------------7---|
D|-----------------------------------------7---|
A|-5-3-3-3-2-0-2-3-2-0-5-------------------5---|
E|---------------------------------------------|
  • 1
  • 2
  • 3
  • 4
  • 5
  • 6
  • 7
  • 8
  • 9
  • 10
  • 11
  • 12
    Acordes para:
      Composição: SublimeColaboração e revisão:

      0 comentários

        mostrar mais comentários

        Conseguiu tocar?

        12tocaram0ainda não

        Grave um vídeo tocando What I Got e mande pra gente!

        00:00 / 00:00
        outros vídeos desta música
        repetirqualidadeautomática
        • automática
        Outro vídeos desta música
          00:00 / 00:00
          automática
          • automática
          Acordes para:violão e guitarra
          dificuldadeexibiçõescontribuições
          2 versões de Tab de baixoexibiçõescontribuições
          1 versão de Tab de bateriaexibiçõescontribuições
          3 versões de Guitar Proformatodownloadscontribuição
          fecharplay/pause subir/descer velocidade
            Acordes para:violão e guitarra
            acordes
            fechar
            OK