Cifra Club

Saturday Night

Suede

Cifra: Principal (violão e guitarra)
Selo Cifra Club: esta cifra foi revisada para atender aos critérios oficiais da nossa Equipe de Qualidade.
tom: G
Intro (2 guitars arranged for 1)
  D                                   D/C#
E|---------2-------------2-3-5-3-2-------------2-------|
B|-----3-----3---3-----------------3-------3-----3---3-|
G|---2---2-----2-------2-----------------2---2-----2---|
D|-0-----------------0---------------------------------|
A|-------------------------------------4---------------|
E|-----------------------------------------------------|
                    C
E|-----2-3-5-3-2-0---0----0--------0---0----2----3---2-|
B|-------------------1----1--------1---1----1----1---1-|
G|---2---------------0----0----------------------------|
D|-----------------------------------------------------|
A|-4---------------------------------------------------|
E|-----------------------------------------------------|
  G
E|--3----------------3-----2-----0--------3--3---3-----|
B|--3------------------3-----3-----3------3--3---------|
G|--0--------------------0-----0----------0--0---0-----|
D|--0----------------------------------0---------0-----|
A|-----------------------------------------------------|
E|--3--------------------------------------------------|

E|-0---------------|
B|-2---------------|
G|-2---------------|
D|-2---------------|
A|-0---------------|
E|-----------------|


   A             C#m7
Today she's been working
            G
She's been talking
             D       Dm
She's been smoking
 E4             E
But it'll be alright
       A
Cos tonight
          C#m7
We'll go dancing
          G
We'll go laughing
           D       Dm
We'll get car sick
E4             E                 E4
And it'll be okay like everyone says
E4          E                E4
It'll be alright and ever so nice
            Bm
We're going out tonight
         Dm
Out and about tonight
D             E
Oh, whatever makes her happy
A             F#m
On a saturday night
 D            E
Oh, whatever makes her happy
A                   F#m   Dm
Whatever makes it alright
  A              C#m
Today she's been sat there
                 G
Sat there in a black chair
        D         Dm
Office furniture
E4              E
But it'll be alright
       A
Cos tonight
          C#m
We'll go drinking
          D          Dm
We'll do silly things
                   E4     E
And never let the winter in
E4             E                 E4
And it'll be okay like everyone says
E4          E                E4
It'll be alright and ever so nice
            D
We're going out tonight
          Dm
Out and about tonight

D             E
Oh, whatever makes her happy
A             F#m
On a saturday night
D             E
Oh, whatever makes her happy
  A                 F#m  Dm
Whatever makes it alright
G#                         Bbm
We'll go to peepshows and freak shows
G#                    Bbm
We'll go to discos, casinos
G#                            Bbm
We'll go where people go and let go
D             E
Oh, whatever makes her happy
A             F#m
On a saturday night
D             E
Oh, whatever makes her happy
  A                  F#m  Dm
Whatever makes it alright
Outros vídeos desta música
    1.295 exibições
      • ½ Tom
      • A
      • Bb
      • B
      • C
      • Db
      • D
      • Eb
      • E
      • F
      • F#
      • G
      • Ab
    • Adicionar à lista

    Afinação da cifra

    Afinador online

      0 comentários

      Ver todos os comentários

      Conseguiu tocar?

      0Tocaram0Ainda não

      Grave um vídeo tocando Saturday Night e nos envie!

      Toque também

      1. Imagem do artista PulpUnderwear Pulp
      2. Imagem do artista Manic Street PreachersMotorcycle Emptiness Manic Street Preachers
      3. Imagem do artista Brett AndersonLove Is Dead Brett Anderson
      4. Imagem do artista The TearsThe Ghost Of You The Tears

      Entre para o Cifra Club PRO

      Tenha acesso a benefícios exclusivos no App e no Site

      • Chega de anúncios

      • Badges exclusivas

      • Mais recursos no app do Afinador

      • Atendimento Prioritário

      • Aumente seu limite de lista

      • Ajude a produzir mais conteúdo

      Cifra Club Pro

      Aproveite o Cifra Club com benefícios exclusivos e sem anúncios
      Cifra Club Pro
      Aproveite o Cifra Club com benefícios exclusivos e sem anúncios
      Ops (: Contenido disponible sólo en portugués.
      OK