Cifra Club

This World Needs A Father

Suede

Cifra: Principal (violão e guitarra)
tom: A
Tune down half a step.
Played clean but with a little gain, most of this song is arpegiated in the following sequence.

'Hold on, he's coming'...

G/Bminor/A/Bminor/C/D/C/D

'Anthem for the world, let it waltz you down the river'

Gx2/C/D

The next change isn t picked out just strummed
'Cos drink, to you, is all I can do'

F/Fminor/C/Aminor
F/Fminor/D

Repeat from start

Ending, Ive just picked main guitar cos BB just goes mad adding tracks a la marr. 
roll tone right off add fuzz, overdrive etc.


---15------------14--14-14-15-17-15--------14--14-14-15-17-|// slide to....
-----------------------------------------------------------|
-------14-16-17--------------------14-16-17----------------|
-----------------------------------------------------------|
-----------------------------------------------------------|
-----------------------------------------------------------|

--------------------------------------------------|
*|
-----------------------------9--------------------|
--------------------------------------------------|
--------------------------------------------------|
--------------------------------------------------|

---------------------------------------------10--|
*|
-----------------------------9-------------------|
-------------------------------------------------|
-------------------------------------------------|
-------------------------------------------------|

--------------------------------------------------|
*|
-----------------------------9--------------------|
--------------------------------------------------|
--------------------------------------------------|
--------------------------------------------------|

---------------------------------------------10--|
*| play final triplet x4
-----------------------------9-------------------|
-------------------------------------------------|
-------------------------------------------------|
-------------------------------------------------|

--------14                      14--14--15-17-15-|
13--15----  play x 3    end on  -----------------|
----------                      -----------------|
----------                      -----------------|
----------                      -----------------|
----------                      -----------------|

The only recording I got of this is casette copy of the 7" so, while I think its right 
keys especially in the drink to you bit might be wrong. Love this track even if it is a 
rip of rocknroll suicide.
00:00 / 00:00
Outros vídeos desta música
Repetir
Outros vídeos desta música
Composição de Bernard Butler / Brett Anderson
192 exibições
    • ½ Tom
    • A
    • Bb
    • B
    • C
    • Db
    • D
    • Eb
    • E
    • F
    • F#
    • G
    • Ab
  • Adicionar à lista

    0 comentários

    Ver todos os comentários

    Conseguiu tocar?

    0 Tocaram 0 Ainda não

    Grave um vídeo tocando This World Needs A Father e nos envie!

    Entre para oCifra Club PRO

    Tenha acesso a benefícios exclusivos no App e no Site

    • Chega de anúncios

    • Prioridade de compra em lançamentos

    • Mais recursos no app do Afinador

    • Atendimento Prioritário

    • Descontos nos produtos Cifra Club

    • Ajude a produzir mais conteúdo

    00:00 / 00:00

    Cifra Club Pro

    Aproveite o Cifra Club com benefícios exclusivos e sem anúncios
    Cifra Club Pro
    Aproveite o Cifra Club com benefícios exclusivos e sem anúncios
    OK