Cifra Club

Aprenda

A Máquina

Sugar Kane

Cifra: Principal (violão e guitarra)
tom: A
Intro:

( F# )
E|-----------|
B|-----------|
G|-----------|
D|---------2-|
A|-0h2p0h2---|
E|-----------|

E|------------------------------------------------------|
B|------------------------------------------------------|
G|-------------------------------------------------9-7--|
D|-4-4-4-4-4-4-4-4-7-7-7-7-7-7-7-7-9-9-9-9-9-9-9-9------| (2x)
A|------------------------------------------------------|
E|------------------------------------------------------|

( F#  A  B  E  D )

F#                            A
Pense na sua forma de agir
                 B           E       D
Você é eficiente ou reage sem pensar
F#            A                            B
As consequências podem ser problemas
              E          D   E
Com soluções impossíveis

D           E                       D
Uma semente que nunca brotou
             E
que surpreende a antiga forma
        D
de organizar
       E                    F#            E|--------------|
 E pode ser a engrenagem                  B|--------------|
 F#                    D                  G|--------------|
que faz parar...                          D|--------------|  (6x)
      E                  F#               A|----------2---|
a continuidade da máquina                 E|-2-2-0-2------|
D               E                F#
Repetiremos até tudo parar
F#                        F#
Os mesmos erros, as boas intenções
D                E       D        A
Repetiremos...
E|------------------------------------------------------|
B|------------------------------------------------------|
G|-------------------------------------------------9-7--|
D|-4-4-4-4-4-4-4-4-7-7-7-7-7-7-7-7-9-9-9-9-9-9-9-9------| (2x)
A|------------------------------------------------------|
E|------------------------------------------------------|

F#                   A
Ações sem importância
                         B
e o costume de deixar de lado
E  D              F#
sentimentos maus
              A
Toda energia acumulada
          B
e o equlibrio frágil
E  D
que pode abalar

D           E                       D
Uma semente que nunca brotou
             E
que surpreende a antiga forma
        D
de organizar
       E                    F#            E|--------------|
 E pode ser a engrenagem                  B|--------------|
 F#                    D                  G|--------------|
que faz parar...                          D|--------------| (6x)
      E                  F#               A|----------2---|
a continuidade da máquina                 E|-2-2-0-2------|
D               E                F#
Repetiremos até tudo parar
F#                        F#
Os mesmos erros, as boas intenções
D                E       D        A
Repetiremos...
Composição de Vini
Colaboração e revisão:
  • Christyan Costa
  • Felipe Tozo
32.010 exibições
    • ½ Tom
    • A
    • Bb
    • B
    • C
    • Db
    • D
    • Eb
    • E
    • F
    • F#
    • G
    • Ab
  • Adicionar à lista

    0 comentários

    Ver todos os comentários

    Conseguiu tocar?

    0 Tocaram 0 Ainda não

    Grave um vídeo tocando A Máquina e nos envie!

    00:00 / 00:00
    outros vídeos desta música
    repetir qualidade Automático
    Outros vídeos desta música
    00:00 / 00:00
    Automático

    Cifra Club Pro

    Aproveite o Cifra Club com benefícios exclusivos e sem anúncios
    Cifra Club Pro
    Aproveite o Cifra Club com benefícios exclusivos e sem anúncios
    OK