Cifra Club

Aprenda

Contra Todos

Sugar Kane

Cifra: Principal (violão e guitarra)
Quer fazer aulas de música com a gente? Responda essas perguntas
e nos ajude nesse projeto! →
tom: F
G1 - guitarra 1(base)
G2 - guitarra 2(solo)

Intro:(O riff da G2 toca uma vez e depois entra G1)

G2:

e|----------------------------------------------------------------------|
B|----------------------------------------------------------------------|
G|----------------------------------------------------------------------|       
D|----7---3------------7---3------------7---3------------7---3----------|
A|--5---5---5--3-----5---5---5--3-----5---5---5--3-----5---5---5--3-----|
E|----------------------------------------------------------------------|

G1:

                D5   F5   C5   G5             
e|------------------------------------------|
B|------------------------------------------|
G|---------------7---10---------------------|
D|---------------7---10---10---5------------|     (2x)
A|---------------5---8----10---5------------|
E|------------------------8----3------------|

(Depois G1 e G2 juntas tocam 2x)
######################################################################
Música:

Guitarra 1:

D5               F5          C5
Todo dia eu vejo as mentiras na minha TV
D5                       F5           C5                  
Sempre a mesma história, escondem o que você não vê
D5        F5        C5
E eu penso "O que vou fazer?"
D5     
Não vamos desistir
F5              C5         Bb5
Nosso pensamento será um 
          C5
Seremos um contra todos


Refrão:

D5                 F5   C5
(Não vou, não vou)Vamos resistir
D5                 F5   C5
(Não vou, não vou)Não vamos desistir
D5                 F5   C5
(Não vou, não vou)Vamos resistir
D5                 F5        C5
(Não vou, não vou)Get up lazy, start to fight right now

Pós Refrão:
(D5 F5 C5 G5)

D5               F5              C5
Você não está só, levante sua voz, preste atenção
D5                    F5              C5
Todos vão te ouvir, não será como a televisão
D5      F5      C5
Impondo sua verdade
D5
Não vamos desistir
F5              C5         Bb5
Nosso pensamento será um
          C5
Seremos um contra todos

######### REFRÃO #########

D5               F5               G5                C5
Não vou, não vou, não vou, não vou, não vou, não vou, não vou, não vou 
D5  F5   G5   C5
Não vou, Não vamos resistir (Não vou, não vou)

######### REFRÃO ##########


#############################################################

Guitarra 2:

E eu penso "O que vou fazer?"

e|--------------8-----------8----------8-------------------|
B|-----------8------------8----------8----------8b-8-------|
G|----7--10--------7--10-------7--10------7--10------------|
D|---------------------------------------------------------|          (2X)
A|---------------------------------------------------------|
E|---------------------------------------------------------|

Pós Refrão:

e|----------------------------------------------------------------------|
B|----------------------------------------------------------------------|
G|----------------------------------------------------------------------|
D|----7---3------------7---3------------7---3------------7---3----------|    (2x)
A|--5---5---5--3-----5---5---5--3-----5---5---5--3-----5---5---5--3-----|
E|----------------------------------------------------------------------|

Impondo sua verdade

e|--------------8-----------8----------8-------------------|
B|-----------8------------8----------8----------8b-8-------|
G|----7--10--------7--10-------7--10------7--10------------|
D|---------------------------------------------------------|          (2X)
A|---------------------------------------------------------|
E|---------------------------------------------------------|
Composição de *ramelas
Colaboração e revisão:
  • Ricardo Rother
7.533 exibições
    • ½ Tom
    • A
    • Bb
    • B
    • C
    • Db
    • D
    • Eb
    • E
    • F
    • F#
    • G
    • Ab
  • Adicionar à lista

    0 comentários

    Ver todos os comentários

    Conseguiu tocar?

    0 Tocaram 0 Ainda não

    Grave um vídeo tocando Contra Todos e nos envie!

    00:00 / 00:00
    Outros vídeos desta música
    Repetir Qualidade Automático
    Outros vídeos desta música
    00:00 / 00:00
    Automático

    Cifra Club Pro

    Aproveite o Cifra Club com benefícios exclusivos e sem anúncios
    Cifra Club Pro
    Aproveite o Cifra Club com benefícios exclusivos e sem anúncios
    OK