Cifra Club

Aprenda

Estou Cansado

Sugar Kane

Cifra: Principal (violão e guitarra)
Quer fazer aulas de música com a gente? Responda essas perguntas
e nos ajude nesse projeto! →
tom: Db
intro: Db-E|-Gb 2x

Riff1:
    Db      E       Gb
e|-------------------------------]
B|-------------------------------]
G|--6-6-6-6-9-9-8-8-9-9-11-11----]  2X
D|--xxxxxxxxxxxxxxxxxxxxxxxxxxxxx]
A|--4-4-4-4-7-7-6-6-7-7--9--9----]
E|-------------------------------]

Riff2:
    Db               E    Gb
e|-------------------------------]
B|-------------------------------]
G|-------------------------------]  4X
D|-------------------------------]
A|--4/5-0-2-0-4-5-4-2-2-2-4-4----]
E|--------------------0-0-2-2----]

Db
Verso:
Db                    E
Estou cansado de esperar o tempo
Gb               Db
Mudar as coisas, entre nós
           E
existe um abismo
          Gb
e eu não posso mais viver...

Pra repetir os erros        ]
Que cometi por não lembrar   ]   Riff 2
Aquilo que vivemos           ]     
e não valorizar             ]

Db

E            Gb               Db
Quem sabe um dia eu te conheça
E          Gb                
Talvez eu possa te reconhecer

Riff2

Db                            E
Mais de um milhão de coisas pra falar
Gb               Db
mas quando te encontro não
             E               Gb  
consigo organizar meus pensamentos e dizer

Repita os mesmos erros      ]
Que cometi por não lembrar   ]   Riff2
Aquilo que vivemos           ]
ou não valorizar            ]

Db

E             Gb              Db
Quem sabe um dia eu te conheça
E             Gb             
Talvez eu possa te reconhecer

e|-9--9-----9--9----------------------------]
B|---9--9-----9--9--------------------------]
G|------------------7/9-9-8-8-9-9-8-8-------]  2X
D|------------------xxxxxxxxxxxxxxxxxxxxxxxx]
A|------------------5/7-7-6-6-7-7-6-6-------]
E|------------------------------------------]

e|-9--9-----9--9----]
B|---9--9-----9--9--]
G|------------------] 
D|------------------]
A|------------------]
E|------------------]

deixa soar C#, depis C# de novo.
Composição de Vini
Colaboração e revisão:
  • Tiago Jesus
5.728 exibições
    • ½ Tom
    • A
    • Bb
    • B
    • C
    • Db
    • D
    • Eb
    • E
    • F
    • F#
    • G
    • Ab
  • Adicionar à lista

    0 comentários

    Ver todos os comentários

    Conseguiu tocar?

    0 Tocaram 0 Ainda não

    Grave um vídeo tocando Estou Cansado e nos envie!

    00:00 / 00:00
    Outros vídeos desta música
    Repetir Qualidade Automático
    Outros vídeos desta música
    00:00 / 00:00
    Automático

    Cifra Club Pro

    Aproveite o Cifra Club com benefícios exclusivos e sem anúncios
    Cifra Club Pro
    Aproveite o Cifra Club com benefícios exclusivos e sem anúncios
    OK