Cifra Club

Aprenda

Janeiro

Sugar Kane

Cifra: Principal (violão e guitarra)
Já pensou em usar uma coleção de roupas do Cifra Club? Responda as perguntas abaixo e nos ajude nessa missão! →
tom: B
Intro:

e|---------------------|
B|---------------------|
G|---------------------|
D|--9---9---9---4------|
A|--6---7---9---4------|
E|----------7---2------|
    D#  E   B   F#
     

D#                 E
Fecho os olhos pra me levantar
              B       F#
e esquecer o que passou
D#            E
A falta que você me faz
                     B            F#
é do passado que existiu o que ficou...


G#       A# B    E       B        F#
Na minha solidão, não estou só, me sinto assim...
G#       A# B    E            B     F#
Posso ser só um, sempre terei vc em mim...

Intro

D#                 E
As dúvidas que estão aqui
               B      F#
tentando convencer-me que
D#            E
Aquilo que você falou
              B          F#
Ainda dói em mim janeiro acabou...


G#     A# B     E
Não devo nem tentar
      B           F#
muito menos desistir...
G#     A# B  E            B           F#
Posso ser um só, sempre terei, recomeçar...

Solinho
Obs: Este solinho é executado com tapping,

|   Repete isso    | Isso é  | E isso é uma pequena |
|   varias vezes   | no final|variação no Finalzinho|
 
e|-------------------(9-11-12)------(11-12-14)--------|
b|-(7-9-11)-(7-9-12)----------------------------------|
G|----------------------------------------------------|
D|----------------------------------------------------|
A|----------------------------------------------------|
E|-----------------------------------------------VETOR|

Intro
Composição de Capilé
Colaboração e revisão:
47.493 exibições
    • ½ Tom
    • A
    • Bb
    • B
    • C
    • Db
    • D
    • Eb
    • E
    • F
    • F#
    • G
    • Ab
  • Adicionar à lista

    0 comentários

    Ver todos os comentários

    Conseguiu tocar?

    2 Tocaram 1 Ainda não

    Grave um vídeo tocando Janeiro e nos envie!

    00:00 / 00:00
    outros vídeos desta música
    repetir qualidade Automático
    Outros vídeos desta música
    00:00 / 00:00
    Automático

    Cifra Club Pro

    Aproveite o Cifra Club com benefícios exclusivos e sem anúncios
    Cifra Club Pro
    Aproveite o Cifra Club com benefícios exclusivos e sem anúncios
    OK