Cifra Club

Aprenda

Reviver

Sugar Kane

Cifra: Principal (violão e guitarra)
Quer fazer aulas de música com a gente? Responda essas perguntas
e nos ajude nesse projeto! →
tom: E
Intro Base: (C#  G# A  E B) 3x  

Intro
E|--------------------------------------------|
B|--------------------------------------------|
G|6-6-x-x-x-x---6-6---14-----13----11----9----|
D|6-6-x-x-x-x---6-6---14 3x -13 3x-11 3x-9 3x-|
A|4-4-x-x-x-x---4-4---12-----11----9-----7----|
E|--------------------------------------------|

E|--------------------------------------------|
B|--------------------------------------------|
G|-------------------14-----13----11----9-----|
D|7-7-x-x-x-x--7-7---14 3x -13 3x-11 3x-9 3x--|
A|7-7-x-x-x-x--7-7---12-----11----9-----7-----|
E|5-5-x-x-x-x--5-5----------------------------|


C#         G# A  
Aquilo que eu vi 
       E     B      C# 
E todo tempo que perdi 
              G# A  
Já é tarde pra viver 
        E       B 
Nunca será pra acontecer 
 
Riff 1

E|---------------------------9-------------------------------------|
B|-----5-----------5-----7/9---9-7---------5--------5----------4---|
G-6--6---6---6--6----6-----------------6-6---6--6-6---6---4-4---4-|
D|-----------------------------------------------------------------|
A|-----------------------------------------------------------------|
E|-----------------------------------------------------------------|

      (C#   G# A  E B) 
Pra viver o hoje eo o amanhã, 
Sempre além do que foi ontem 
Pra não perder o daqui a pouco 
E superar o tempo passado 
Estar sempre em algum lugar 
Entre o ontem e o amanhã 
Entre viver e Ter vivido 
Sem nunca deixar de viver 
A       B        C# 
Não vou mais reviver 
    A           E 
E a vida passa ali 
         B                C# 
Um outro mundo que eu não quis 
     A            E 
E enquanto eu acordar 
            B              C# 
Vou me esforçar pra não dormir 
    A           E 
E a vida passa ali 
         B                A 
Um outro mundo que eu não quis 
        B        C#  
Não vou mais reviver 
 
Intro: 2x 
 
C#            G# A  
Mais um ano por aqui 
     E      B        C# 
Avaliando o que escolhi 
                 G# A 
Pensando hoje o amanhã 
             E         B 
E perdendo o ontem pra sempre 

Riff 1

E|---------------------------9-------------------------------------|
B|-----5-----------5-----7/9---9-7---------5--------5----------4---|
G|-6--6---6---6--6----6-----------------6-6---6--6-6---6---4-4---4-|
D|-----------------------------------------------------------------|
A|-----------------------------------------------------------------|
E|-----------------------------------------------------------------|

      (C#   G# A  E B) 
Deixar pra trás o que passou 
Sem se perder no já passado 
Querer pra sempre o hoje 
Como se não fosse só agora... 
Enquanto vier o logo mais... 
Como se não houvesse amanhã 
 
A       B        C# 
Não vou mais reviver 
    A           E 
E a vida passa ali 
         B                C# 
Um outro mundo que eu não quis 
    A              E 
E enquanto eu levantar  
            B              C# 
Vou me esforçar pra não dormir 
    A           E 
E a vida passa ali 
         B                A 
Um outro mundo que eu não quis 
        B         C#  
Não vou mais reviver 
 
Intro: 2x
Composição de Hildo
Colaboração e revisão:
  • Paulodz6 Fernandes
  • Luiz Luz
17.639 exibições
    • ½ Tom
    • A
    • Bb
    • B
    • C
    • Db
    • D
    • Eb
    • E
    • F
    • F#
    • G
    • Ab
  • Adicionar à lista

    0 comentários

    Ver todos os comentários

    Conseguiu tocar?

    1 Tocaram 0 Ainda não

    Grave um vídeo tocando Reviver e nos envie!

    00:00 / 00:00
    Outros vídeos desta música
    Repetir Qualidade Automático
    Outros vídeos desta música
    00:00 / 00:00
    Automático

    Cifra Club Pro

    Aproveite o Cifra Club com benefícios exclusivos e sem anúncios
    Cifra Club Pro
    Aproveite o Cifra Club com benefícios exclusivos e sem anúncios
    OK