Cifra Club

Another Time Around

Sum 41

Cifra: Principal (violão e guitarra)
Tom: A
By:Frédéric Hamel

e|---------------------------------------------------------------------------|
B|---------------------------------------------------------------------------|
G|-6-7---9--6-7--------------------------------------------------------------|
D|-6-7-6-9--6-7--6-----------------------------------------------------------|
A|-4-5-6-7--4-5--6-----------------------------------------------------------|
E|-----4---------4-----------------------------------------------------------|

e|---------------------------------------------------------------------------|X4
B|---------------------------------------------------------------------------|
G|---------------------------------------------------------------------------|
D|-7-6-7-6-2-2-2-2-----------------------------------------------------------|
A|-7-6-7-6-2-2-2-2-----------------------------------------------------------|
E|-5-4-5-4-0-0-0-0-----------------------------------------------------------|

e|---------------------------------------------------------------------------|X4
B|---------------------------------------------------------------------------|
G|-7-7-7-7-------------------------------------------------------------------|
D|-7-7-7-7--7-7-7-7--2-2-2-2-2-2-2-2-----------------------------------------|
A|-5-5-5-5--7-7-7-7--2-2-2-2-2-2-2-2-----------------------------------------|
E|----------5-5-5-5--0-0-0-0-0-0-0-0-----------------------------------------|

e|---------------------------------------------------------------------------|X2
B|---------------------------------------------------------------------------|
G|-7-7-7-7--11-11-11-11--9-9-9-9---------------------------------------------|
D|-7-7-7-7--11-11-11-11--9-9-9-9---------------------------------------------|
A|-5-5-5-5---9--9--9--9--7-7-7-7---------------------------------------------|
E|---------------------------------------------------------------------------|

e|---------------------------------------------------------------------------|X2
B|---------------------------------------------------------------------------|
G|-7-------------------------------------------------------------------------|
D|-7-----------7-----------2-------------------------------------------------|
A|-5--5-5-5-5--7-----------2-------------------------------------------------|
E|-------------5--5-5-5-5--0--0-0-0-0----------------------------------------|
     |  p.m  |   |  p.m  |   |  p.m  |

e|---------------------------------------------------------------------------|X4
B|---------------------------------------------------------------------------|
G|-7-7-7-7-------------------------------------------------------------------|
D|-7-7-7-7--7-7-7-7--2-2-2-2-2-2-2-2-----------------------------------------|
A|-5-5-5-5--7-7-7-7--2-2-2-2-2-2-2-2-----------------------------------------|
E|----------5-5-5-5--0-0-0-0-0-0-0-0-----------------------------------------|

e|---------------------------------------------------------------------------|
B|---------------------------------------------------------------------------|
G|-----------7-7-7-7---------------------------------------------------------|
D|--8-8-8-8--7-7-7-7--7-6-4--4-4-4-4--2-2-2-2--------------------------------|
A|--8-8-8-8--5-5-5-5--7-6-4--4-4-4-4--2-2-2-2--------------------------------|
E|--6-6-6-6-----------5-4-2--2-2-2-2--0-0-0-0--------------------------------|

e|---------------------------------------------------------------------------|X4
B|---------------------------------------------------------------------------|
G|---------------------------------------------------------------------------|
D|-7-6-7-6-2-2-2-2-----------------------------------------------------------|
A|-7-6-7-6-2-2-2-2-----------------------------------------------------------|
E|-5-4-5-4-0-0-0-0-----------------------------------------------------------|

e|---------------------------------------------------------------------------|
B|---------------------------------------------------------------------------|
G|-6-7---9--6-7--------------------------------------------------------------|
D|-6-7-6-9--6-7--6-----------------------------------------------------------|
A|-4-5-6-7--4-5--6-----------------------------------------------------------|
E|-----4---------4-----------------------------------------------------------|

e|---------------------------------------------------------------------------|X4
B|---------------------------------------------------------------------------|
G|-7-7-7-7-------------------------------------------------------------------|
D|-7-7-7-7--7-7-7-7--2-2-2-2-2-2-2-2-----------------------------------------|
A|-5-5-5-5--7-7-7-7--2-2-2-2-2-2-2-2-----------------------------------------|
E|----------5-5-5-5--0-0-0-0-0-0-0-0-----------------------------------------|

e|---------------------------------------------------------------------------|
B|---------------------------------------------------------------------------|
G|-7-------------------------------------------------------------------------|
D|-7--7-7-7-7-7-7-7-7--------------------------------------------------------|
A|-5--7-7-7-7-7-7-7-7--------------------------------------------------------|
E|----5-5-5-5-5-5-5-5--------------------------------------------------------|

===============================================================================
exibições 3.137
Acordes para:
    Composição: Sum 41 Colaboração e revisão:
    • Pedro

    0 comentários

    mostrar mais comentários

    Conseguiu tocar?

    0 tocaram 0 ainda não

    Grave um vídeo tocando Another Time Around e mande pra gente!

    00:00 / 00:00
    outros vídeos desta música
    repetir qualidade Automático
    Outros vídeos desta música
    00:00 / 00:00
    Automático
    OK