Cifra Club

Asshole

Sum 41

Cifra: Principal (violão e guitarra)
Tom: C
(E,A,D,G,B,E)

Intro

E |------------------|
B |---------0-0------|
G |------------------|
D |-3-3-3-3-----4-4p-|
A |-3-3-3-3-----4-4p-|
E |-2-2-2-2-----2-2p-|

Verso:

E |------------------------------------------------------------------|
B |------------------------------------------------------------------|
G |-----------------7-7-7-7-4-4-4-4------------------7-7-7-7-4-4-4-4-|
D |-4-4-4-4-7-7-7-7-7-7-7-7-4-4-4-4--4-4-4-4-7-7-7-7-7-7-7-7-4-4-4-4-|
A |-4-4-4-4-7-7-7-7-5-5-5-5-2-2-2-2--4-4-4-4-7-7-7-7-5-5-5-5-2-2-2-2-|
E |-2-2-2-2-5-5-5-5------------------2-2-2-2-5-5-5-5-----------------|

Refrão:

E |---------------------------------------|
B |---------------------------------------|
G |----------------------------------4----|
D |-2-2-2-2-2--2-2-2-2-2--2-2-2-2-2--4--5-|
A |-2-2-2-2-2--2-2-2-2-2--2-2-2-2-2--2--5-|
E |-0-0-0-0-0--0-0-0-0-0--0-0-0-0-0-----3-|
     |--pm---|  |--pm---|  |--pm---|

E |---------------------------------------|
B |---------------------------------------|
G |----------------------------------4----|
D |-2-2-2-2-2--2-2-2-2-2--2-2-2-2-2--4--5-|
A |-2-2-2-2-2--2-2-2-2-2--2-2-2-2-2--2--5-|
E |-0-0-0-0-0--0-0-0-0-0--0-0-0-0-0-----3-|
     |--pm---|  |--pm---|  |--pm---|

Verso

E |------------------------------------------------------------------|
B |------------------------------------------------------------------|
G |-----------------7-7-7-7-4-4-4-4------------------7-7-7-7-4-4-4-4-|
D |-4-4-4-4-7-7-7-7-7-7-7-7-4-4-4-4--4-4-4-4-7-7-7-7-7-7-7-7-4-4-4-4-|
A |-4-4-4-4-7-7-7-7-5-5-5-5-2-2-2-2--4-4-4-4-7-7-7-7-5-5-5-5-2-2-2-2-|
E |-2-2-2-2-5-5-5-5------------------2-2-2-2-5-5-5-5-----------------|

Refrão

E |---------------------------------------|
B |---------------------------------------|
G |----------------------------------4----|
D |-2-2-2-2-2--2-2-2-2-2--2-2-2-2-2--4--5-|
A |-2-2-2-2-2--2-2-2-2-2--2-2-2-2-2--2--5-|
E |-0-0-0-0-0--0-0-0-0-0--0-0-0-0-0-----3-|
     |--pm---|  |--pm---|  |--pm---|

E |---------------------------------------|
B |---------------------------------------|
G |----------------------------------4----|
D |-2-2-2-2-2--2-2-2-2-2--2-2-2-2-2--4--5-|
A |-2-2-2-2-2--2-2-2-2-2--2-2-2-2-2--2--5-|
E |-0-0-0-0-0--0-0-0-0-0--0-0-0-0-0-----3-|
     |--pm---|  |--pm---|  |--pm---|

Outro

E |------------------------------------------------------------------|
B |------------------------------------------------------------------|
G |-----------------7-7-7-7-4-4-4-4------------------7-7-7-7-4-4-4-4-|
D |-4-4-4-4-7-7-7-7-7-7-7-7-4-4-4-4--4-4-4-4-7-7-7-7-7-7-7-7-4-4-4-4-|
A |-4-4-4-4-7-7-7-7-5-5-5-5-2-2-2-2--4-4-4-4-7-7-7-7-5-5-5-5-2-2-2-2-|
E |-2-2-2-2-5-5-5-5------------------2-2-2-2-5-5-5-5-----------------|

E |-------------------------------------------------------------------------|
B |-------------------------------------------------------------9^-11-11-9*-|
G |-----------------7-7-7-7-4-4-4-4------------------7-7-7------------------|
D |-4-4-4-4-7-7-7-7-7-7-7-7-4-4-4-4--4-4-4-4-7-7-7-7-7-7-7-7-9--------------|
A |-4-4-4-4-7-7-7-7-5-5-5-5-2-2-2-2--4-4-4-4-7-7-7-7-5-5-5-7-9--------------|
E |-2-2-2-2-5-5-5-5------------------2-2-2-2-5-5-5-5-------5-7--------------|

Lyrics:

Fucking Shit !

You Look Like Shit
You Smell Like Shit
So Why You Such A Dick
You Walk Around Like You're The Shit
You Always Make Me Sick

Rap Boy Ragony
What Catastrophe

You Look Like Shit
You Smell Like Shit
So Why You Such A Dick
You Walk Around Like You're The Shit
You Always Make Me Sick

Rap Boy Ragony
What Catastrophe

You're An Asshole
You're An Asshole
You're An Asshole
You're An Asshole
You Make Me Sick
exibições 875
Acordes para:
    Colaboração e revisão:
    • Bruno Soares

    0 comentários

    mostrar mais comentários

    Conseguiu tocar?

    0 tocaram 0 ainda não

    Grave um vídeo tocando Asshole e mande pra gente!

    00:00 / 00:00
    outros vídeos desta música
    repetir qualidade Automático
    Outros vídeos desta música
    00:00 / 00:00
    Automático
    OK