Cifra Club

Billy Spleen

Sum 41

Cifra: Principal (violão e guitarra)
Tom: C
Drop D tuning. 
 
Into (Time 0:11 ) 
E|------ -\ 
B|------   \ 
G|------    \_  x1 
D|-2-2--    / 
A|-2-2--   / 
D|-2-2--  / 
 
E|--------------------------------- -\ 
B|---------------------------------   \ 
G|---------------------------------    \_  x3 
D|-2-2--2-2--2-2-------------------    / 
A|-2-2--2-2--2-2-------------------   /  
D|-2-2--2-2--2-2------------------- -/ 
 
E|--------------------------------- -\ 
B|---------------------------------   \ 
G|---------------------------------    \_  x1 
D|-2-2--2-2--2-2--2-2--2-2----12/--    / 
A|-2-2--2-2--2-2--2-2--2-2----12/--   /  
D|-2-2--2-2--2-2--2-2--2-2----12/-- -/ 
 
 
Verse (Time 0:22 ) 
E|--------------------------------- -\ 
B|---------------------------------   \ 
G|---------------------------------    \_  x3 
D|-2----0-2-----5------0-----------    / 
A|-2----0-2-----5------0-----------   /  
D|-2----0-2-----5------0----------- -/ 
 
E|--------------------------------- -\ 
B|---------------------------------   \ 
G|---------------------------------    \_  x1 
D|-2----0-2-----5------0-5---------    / 
A|-2----0-2-----5------0-5---------   /  
D|-2----0-2-----5------0-5--------- -/ 
 
 
Chorus (Time 0:38 ) 
E|--------------------------------- -\ 
B|---------------------------------   \ 
G|-4--------------------------2----    \_  x2 
D|-4----5-------0------2----5-2----    / 
A|-2----5-------0------2----5-0----   /  
D|------5-------0------2----5------ -/ 
 
 
Verse (Time 0:55 ) 
E|--------------------------------- -\ 
B|---------------------------------   \ 
G|---------------------------------    \_  x3 
D|-2----0-2-----5------0-----------    / 
A|-2----0-2-----5------0-----------   /  
D|-2----0-2-----5------0----------- -/ 
 
E|--------------------------------- -\ 
B|---------------------------------   \ 
G|---------------------------------    \_  x1 
D|-2----0-2-----5------0-5---------    / 
A|-2----0-2-----5------0-5---------   /  
D|-2----0-2-----5------0-5--------- -/ 
 
 
Chorus (Time 1:12 ) 
E|--------------------------------- -\ 
B|---------------------------------   \ 
G|-4--------------------------2----    \_  x2 
D|-4----5-------0------2----5-2----    / 
A|-2----5-------0------2----5-0----   /  
D|------5-------0------2----5------ -/ 
 
Into (Time 1:29 ) 
E|------ -\ 
B|------   \ 
G|------    \_  x1 
D|-2-2--    / 
A|-2-2--   / 
D|-2-2--  / 
 
E|--------------------------------- -\ 
B|---------------------------------   \ 
G|---------------------------------    \_  x3 
D|-2-2--2-2--2-2-------------------    / 
A|-2-2--2-2--2-2-------------------   /  
D|-2-2--2-2--2-2------------------- -/ 
 
E|--------------------------------- -\ 
B|---------------------------------   \ 
G|---------------------------------    \_  x1 
D|-2-2--2-2--2-2--2-2--2-2----12/--    / 
A|-2-2--2-2--2-2--2-2--2-2----12/--   /  
D|-2-2--2-2--2-2--2-2--2-2----12/-- -/ 
 
 
Bridge (Time 1:39 ) 
E|--------------------------------- -\ 
B|---------------------------------   \ 
G|---------------------------------    \_  x3 
D|-2-2--2-2--2-2--2-2--------------    / 
A|-2-2--2-2--2-2--2-2--------------   /  
D|-2-2--2-2--2-2--2-2-------------- -/ 
  v^v  v^v  v^v  v^v 
pm................................ 
 
 
E|--------------------------------- -\ 
B|---------------------------------   \ 
G|---------------------------------    \_  x1 
D|-0---------------5-5-4-4---------    / 
A|-0---------------5-5-4-4---------   /  
D|-0---------------5-5-4-4--------- -/ 
pm.............. 
 
 
E|--------------------------------- -\ 
B|---------------------------------   \ 
G|---------------------------------    \_  x3 
D|-2-2--2-2--2-2--2-2--------------    / 
A|-2-2--2-2--2-2--2-2--------------   /  
D|-2-2--2-2--2-2--2-2-------------- -/ 
  v^v  v^v  v^v  v^v 
pm................................ 
 
E|--------------------------------- -\ 
B|---------------------------------   \ 
G|---------------------------------    \_  x1 
D|-0---------------5-5-4-----------    / 
A|-0---------------5-5-4-----------   /  
D|-0---------------5-5-4----------- -/ 
pm.............. 
 
 
Verse (Time 1:56 ) 
E|--------------------------------- -\ 
B|---------------------------------   \ 
G|---------------------------------    \_  x3 
D|-2----0-2-----5------0-----------    / 
A|-2----0-2-----5------0-----------   /  
D|-2----0-2-----5------0----------- -/ 
 
E|--------------------------------- -\ 
B|---------------------------------   \ 
G|---------------------------------    \_  x1 
D|-2----0-2-----5------0-5---------    / 
A|-2----0-2-----5------0-5---------   /  
D|-2----0-2-----5------0-5--------- -/ 
 
 
Chorus (Time 2:13 ) 
E|--------------------------------- -\ 
B|---------------------------------   \ 
G|-4--------------------------2----    \_  x2 
D|-4----5-------0------2----5-2----    / 
A|-2----5-------0------2----5-0----   /  
D|------5-------0------2----5------ -/
exibições 1.546
Acordes para:
    Composição: Sum 41 Colaboração e revisão:
    • Ruan Corrêa

    0 comentários

    mostrar mais comentários

    Conseguiu tocar?

    0 tocaram 0 ainda não

    Grave um vídeo tocando Billy Spleen e mande pra gente!

    00:00 / 00:00
    outros vídeos desta música
    repetir qualidade Automático
    Outros vídeos desta música
    00:00 / 00:00
    Automático
    OK