Cifra Club

Crazy Amanda Bunkface

Sum 41

Cifra: Principal (violão e guitarra)
Tom: C
Por: Billie Ray Ramone

Intro......pm.....
e|---------------------------------------|
B|---------------------------------------|
G|---------------------------------------|
D|-555-555-777-777-999-999-101010-101010-| 
A|-555-555-777-777-999-999-101010-101010-| 
E|-333-333-555-555-777-777----888----888-| 

Refrao (x4) Verso pós refrao (x2) 
e|--------------|-----------------------------------
B|--------------|---------------------------------- 
G|-55----777777-|----------55555555-777------------ 
D|-55-55-777777-|-55555555-33333333-777--------5--- 
A|-33-55-555555-|-33333333-33333333-555--------3----
E|----33--------|-33300333---------------------3----

Verso  
e|-------------------------------------|------------
B|-------------------------------------|------------
G|-------------------------------------|----------- 
D|-------------------------------------|------------
A|-------------------------------------|---------10101010-99999999-------1010101010| 
E|-33333333-55555555-77777777-88888888-|10101010----
 
depois vem verso sem ....pm....
depois vem refrao (x4) 

depois esse bridge  (x4) Gtr.2 usa* na terceira e quarta vez
e|-----------------------|--------------------------
B|-----------------------|--------------------------
G|-----------------------|-12*--------------------- 
D|-xxx2-xxx2-xxx2-xxx4-5-|-10*----------------------
A|-xxx2-xxx2-xxx2-xxx4-5-|-10*----------------------
E|-xxx0-xxx0-xxx0-xxx2-3-|------------------------- 

Bridge (I'm on my way)


e|--------------------------------------------------
B|--------------------------------------------------
G|--------------------------------------------------
D|-10-8-7-------------------------------------------
A|-10-8-7-------------------------------------------
E|--8-6-5-------------------------------------------

Ultimo verso (refrão)  (x4)  Musica acaba no 
e|----------------|---------------------------------
B|----------------|---------------------------------
G|-77----99999999-|---------------------------------
D|-75-77-77777777-|-7*------------------------------
A|-55-55-77777777-|-7------------------------------ 
E|----55----------|-5-------------------------------
exibições 10.218
Acordes para:
    Composição: Sum 41

    0 comentários

    mostrar mais comentários

    Conseguiu tocar?

    0 tocaram 0 ainda não

    Grave um vídeo tocando Crazy Amanda Bunkface e mande pra gente!

    00:00 / 00:00
    outros vídeos desta música
    repetir qualidade Automático
    Outros vídeos desta música
    00:00 / 00:00
    Automático
    OK