Cifra Club

Fat Lip

Sum 41

Cifra: Principal (violão e guitarra)
Tom: E
Guitar 1 
   
E|-----------------|-------------------|    
B|-----------------|-------------------|    
G|-----------------|-------------------|
D|-------6-------4-|-------6-------4/2-| 3x 
A|-----------------|-------------------|
E|-4-5-7---4-5-7---|-4-5-7---4-5-7-----|
   .....   .....     .....   ..... 

E|-----------------|---------------------------|
B|-----------------|---------------------------|    
G|-----------------|-------------------2-2-2-2-|
D|-------6-------4-|-------6-------4/2-2-2-2-2-|   
A|-----------------|-------------------0-0-0-0-|
E|-4-5-7---4-5-7---|-4-5-7---4-5-7-------------|
   .....   .....     .....   ..... 

Guitar 2 

E|--------------|--------------|--------------|--------------|
B|--------------|--------------|--------------|--------------|
G|--------------|--------------|--------------|--------------|
D|-22-2-22-22-7-|-22-2-22-22-7-|-22-2-22-22-7-|-22-2-22-22-7-|
A|-22-2-22-22-7-|-22-2-22-22-7-|-22-2-22-22-7-|-22-2-22-22-7-|
E|-00-0-00-00-5-|-00-0-00-00-5-|-00-0-00-00-5-|-00-0-00-00-5-|

Storming through the party like my name was el ninio
When i'm handgun out drinking in the back of an el camino
As a kid, i was a skid and no one knew me by name.
I trashed my own house party cause no body came.
 
E|---------------|-----------------|---------------|-----------------|
B|---------------|-----------------|---------------|-----------------|
G|---------------|-2-2-------------|---------------|-2-2-------------|
D|-2-2-2-1-2-----|-2-2-2-1-2-------|-2-2-2-1-2-----|-2-2-2-1-2-------|
A|-2-2-------2-2-|-0-0-------2-----|-2-2-------2-2-|-0-0-------2-----|
E|-0-0-----------|-------------4-2-|-0-0-----------|-------------4-2-|

I know i'm not the one you thought you knew back in high school
Never going, ever showing up when we had to.
Is it attention that we crave don't tell us to behave,
I'm sick of always hearing act your age.

E|-------------------|------------------------|
B|-------------------|------------------------|    
G|-------------------|-----6-----6------------|
D|-----2-----2-----2-|-----6-----6-----7-----7| 2x
A|-----2-----2-----2-|-4-4-4-4-4-4-----7-----7|
E|-0-0-0-0-0-0-0-0-0-|-------------5-5-5-5-5-5|
   ...   ...   ...     ...   ...   ...   ...

I don't want to waste my time
And become a casualty of society.
I'll never fall in line
Become another victim of your conformity

E|-----------------------------|---------------------------|
B|-----------------------------|---------------------------|    
G|-9-4-4-4--4--6-6--6-6-6-6--6-|---------------------------|
D|-9-4-4-4--4--6-6--6-6-6-6--6-|-6--6-7-7--7-6-6--6-7-7--7-| 2x
A|-7-2-2-2--2--4-4--4-4-4-4--4-|-6--6-7-7--7-6-6--6-7-7--7-| 
E|-----------------------------|-4--4-5-5--5-4-4--4-5-5--5-|

And back down.

Interlude

Guitar 1

E|-----------------|-------------------|    
B|-----------------|-------------------|    
G|-----------------|-------------------|
D|-------6-------4-|-------6-------4/2-| 2x 
A|-----------------|-------------------|
E|-4-5-7---4-5-7---|-4-5-7---4-5-7-----|
   .....   .....     .....   ..... 

Guitar 2

E|--------------|--------------|--------------|--------------|
B|--------------|--------------|--------------|--------------|
G|--------------|--------------|--------------|--------------|
D|-22-2-22-22-7-|-22-2-22-22-7-|-22-2-22-22-7-|-22-2-22-22-7-|
A|-22-2-22-22-7-|-22-2-22-22-7-|-22-2-22-22-7-|-22-2-22-22-7-|
E|-00-0-00-00-5-|-00-0-00-00-5-|-00-0-00-00-5-|-00-0-00-00-5-|


Because you don't
Know us at all we laugh when old people fall.
But what would you expect with a conscience so small.
Heavy metal and mullets it's how we were raised.
Maiden and priest were the gods that we praised

E|---------------|-----------------|---------------|-----------------|
B|---------------|-----------------|---------------|-----------------|
G|---------------|-2-2-------------|---------------|-2-2-------------|
D|-2-2-2-1-2-----|-2-2-2-1-2-------|-2-2-2-1-2-----|-2-2-2-1-2-------| 2x
A|-2-2-------2-2-|-0-0-------2-----|-2-2-------2-2-|-0-0-------2-----|
E|-0-0-----------|-------------4-2-|-0-0-----------|-------------4-2-|

Cause we like having fun at other peoples expense and,
Cutting people down is just a minor offence then,
It's none of your concern, i guess i'll never learn.
I'm sick of being told to wait my turn.

E|-------------------|------------------------|
B|-------------------|------------------------|    
G|-------------------|-----6-----6------------|
D|-----2-----2-----2-|-----6-----6-----7-----7| 2x
A|-----2-----2-----2-|-4-4-4-4-4-4-----7-----7|
E|-0-0-0-0-0-0-0-0-0-|-------------5-5-5-5-5-5|
   ...   ...   ...     ...   ...   ...   ...

I don't want to waste my time
And become a casualty of society.
I'll never fall in line
Become another victim of your conformity

E|-----------------------------|---------------------------|
B|-----------------------------|---------------------------|    
G|-9-4-4-4--4--6-6--6-6-6-6--6-|---------------------------|
D|-9-4-4-4--4--6-6--6-6-6-6--6-|-6--6-7-7--7-6-6--6-7-7--7-| 2x
A|-7-2-2-2--2--4-4--4-4-4-4--4-|-6--6-7-7--7-6-6--6-7-7--7-|
E|-----------------------------|-4--4-5-5--5-4-4--4-5-5--5-|

And back down.

E|-----------------|---------------|-----------------|----------|
B|-----------------|---------------|-----------------|----------|
G|-----------------|-------------2-|-----------------|----------|
D|-22-xx-22-xx-2-x-|-22-xx-22-2x-2-|-22-xx-22-xx-2-x-|-22-xx-22-|
A|-22-xx-22-xx-2-x-|-22-xx-22-2x-0-|-22-xx-22-xx-2-x-|-22-xx-22-|
E|-00-xx-00-xx-0-x-|-00-xx-00-0x---|-00-xx-00-xx-0-x-|-00-xx-00-|


Don't count on me, to let you know when.
Don't count on me, i'll do it again.
Don't count on me, it's the point you're missing.
Don't count on me, cause i'm not listening.

E|------------------------------------|
B|------------------------------------|
G|-----9---------9----------6---------|
D|---9---9-----9---9------6---6-------| 3x
A|-7---------6----------4---------7---|
E|------------------------------5---5-|


E|-----------------------------------------|
B|-----------------------------------------|
G|-----9---------9----------6-----2-2-2-2--|
D|---9---9-----9---9------6---6---2-2-2-2--|
A|-7---------6----------4---------0-0-0-0--|
E|------------------------------5----------|

Well i'm a no goodnick lower middle class brat,
Back packed and i don't give a shit about nothing.
You be standing on the corner talking all that kufuffin.

E|-------------------|-------------------|-----------------|
B|-------------------|-------------------|-----------------|
G|-------------------|-------------------|-----------------|
D|-22--2--2-2-2-2--7-|-22--2--2-2-2-2--7-|--------------7\-|
A|-22--2--2-2-2-2--7-|-22--2--2-2-2-2--7-|--------------7\-|
E|-00--0--0-0-0-0--5-|-00--0--0-0-0-0--5-|--------------5\-|

But you don't make sense from all the gas you be huffing.
Then if the egg don't stain you'll be ringing off the hook,
You're on the hit list wanted in the telephone book.

E|--------------------|----------------|-----------------|
B|--------------------|----------------|-----------------|
G|--------------------|----------------|-----------------|
D|-2-2--2--2-2-2-2--7-|-22--2--2-2-2-2-|-2-2-----2-2-2-7-|
A|-2-2--2--2-2-2-2--7-|-22--2--2-2-2-2-|-2-2-----2-2-2-7-|
E|-0-0--0--0-0-0-0--5-|-00--0--0-0-0-0-|-0-0-----0-0-0-5-|

I like songs with distortion, to drink in proportion.
The doctor said my mom should have had an abortion.

E|--------------------|-------------------|
B|--------------------|-------------------|
G|--------------------|-------------------|
D|-2-2--2--2-2-2-2--7-|----------------7\-|
A|-2-2--2--2-2-2-2--7-|----------------7\-|
E|-0-0--0--0-0-0-0--5-|----------------5\-|

E|-----------------|-----------------|-----------------|-----------------|
B|-----------------|-----------------|-----------------|-----------------|
G|-----------------|-----------------|-----------------|-----------------|
D|-2-2-2-2-2-2-2-2-|-2-2-2-2-2-2-2-2-|-2-2-2-2-2-2-2-2-|-2-2-2-2-2-2-2-2-|
A|-0-0-0-0-0-0-0-0-|-0-0-0-0-0-0-0-0-|-0-0-0-0-0-0-0-0-|-0-0-0-0-0-0-0-0-|
E|-----------------|-----------------|-----------------|-----------------|
   .................................

I don't want to waste my time
And become a casualty of society.
I'll never fall in line
Become another victim of your conformity

E|-----------------------------|---------------------------|
B|-----------------------------|---------------------------|    
G|-9-4-4-4--4--6-6--6-6-6-6--6-|---------------------------|
D|-9-4-4-4--4--6-6--6-6-6-6--6-|-6--6-7-7--7-6-6--6-7-7--7-| 2x
A|-7-2-2-2--2--4-4--4-4-4-4--4-|-6--6-7-7--7-6-6--6-7-7--7-|
E|-----------------------------|-4--4-5-5--5-4-4--4-5-5--5-|

And back down.

Waste my time with them
Casualty of society.
Waste my time again,
Victim of your conformity

E|-----------------------------|---------------------------|
B|-----------------------------|---------------------------|    
G|-9-4-4-4--4--6-6--6-6-6-6--6-|---------------------------|
D|-9-4-4-4--4--6-6--6-6-6-6--6-|-6--6-7-7--7-6-6--6-7-7--7-| 2x
A|-7-2-2-2--2--4-4--4-4-4-4--4-|-6--6-7-7--7-6-6--6-7-7--7-|
E|-----------------------------|-4--4-5-5--5-4-4--4-5-5--5-|

And back down.

Guitar 1

E|-----------------|-------------------|
B|-----------------|-------------------|    
G|-----------------|-------------------|
D|-------6-------4-|-------6-------4/2-| 2x 
A|-----------------|-------------------|
E|-4-5-7---4-5-7---|-4-5-7---4-5-7-----|
   .....   .....     .....   ..... 

Guitar 2
       
E|----------|
B|----------|
G|----------|
D|-2-2--2-2-|
A|-2-2--2-2-|
E|-0-0--0-0-|
exibições 150.114
Acordes para:
    Composição: Dave Baksh / Deryck Whibley / Greig Nori / Steve Jocz Colaboração e revisão:

    0 comentários

    mostrar mais comentários

    Conseguiu tocar?

    21 tocaram 0 ainda não

    Grave um vídeo tocando Fat Lip e mande pra gente!

    00:00 / 00:00
    outros vídeos desta música
    repetir qualidade Automático
    Outros vídeos desta música
    00:00 / 00:00
    Automático
    OK