Cifra Club

Handle This

Sum 41

Cifra: Principal (violão e guitarra)
Tom: G
guitar 1: intro x2                          guitar 2: intro x2        end w/ 
D
e|----------------------------------------|-------------------------|--------|
B|----------------------------------------|-------------------------|--------|
G|----------------------------------------|-7-7---------------------|---7----|
D|------7---------------------------------|-7-7--7-7--5-5-x-x-x-x-x-|---7----|
A|--7h9----9h10h9--7--5-5-5-5-5--9h10h9--5|-5-5--7-7--5-5-x-x-x-x-x-|---5----|
E|----------------------------------------|------5-5--3-3-x-x-x-x-x-|--------|

verse 1:
e|---------------------|-----------------------------------------------------|
B|---------------------|-----------------------------------------------------|
G|---------------------|---------7 x12---------------------------------------|
D|--(guitar--silence)--|---------7--------7 x12----5 x12---------------------|
A|---------------------|---------5--------7--------5-------------------------|
E|---------------------|------------------5--------3-------------------------|
   You said it...       ...anymore. You say in doubt...
                               (.........PM.........)
chorus:
e|---------------------------------------------------------------------------|
B|---------------------------------------------------------------------------|
G|--7-----7---------------7-----------7--------------------------------------|
D|--7--7--7--7--2--5------7--7--5--7--7--------------------------------------|
A|--5--7--5--7--2--5------5--7--5--7--5--------------------------------------|
E|-----5-----5--0--3---------5--3--5-----------------------------------------|

play intro
verse 2:
e|-------------------|-------------------------------------------------------|
B|-------------------|-------------------------------------------------------|
G|-------------------|-------------------------------------------------------|
D|--(guitar--silent)-|------7 x12-5 x12--------------------------------------|
A|-------------------|------7-----5------------------------------------------|
E|-------------------|------5-----3------------------------------------------|
   You take...        ...time
                           (....PM....)
chorus
solo: (the very very very very very end of the solo is missing. listen to 
the song and
you'll know what im talking about. but hey let me know if any of you awesome
guitarists have it!)
e|-------------14-14h15-14-------------------14-14h15-14---------------------|
B|-------17-15-------------15----15h17-15-17-------------15------------------|
G|-11h14----------------------16----------------------------16h14-12-11h12---|
D|---------------------------------------------------------------------------|
A|---------------------------------------------------------------------------|
E|---------------------------------------------------------------------------|

e|---------------------------------------------------------------------------|
B|-10-10-------10-10--10h12-10-----------------------------------------------|
G|-------11h12-----------------12h11-----12h11-------------------------------|
D|-----------------------------------12--------7-----------------------------|
A|---------------------------------------------------------------------------|
E|---------------------------------------------------------------------------|

o final do solo q naum existia...agora existe!!!(abaixo)
e|-10-12-14-12--10-12-14-10---12-10----12-10----12-10----12-10----12-10------|
B|-10-10-10-10--10-10-10-10---------10-------10-------10-------10-------10---|
G|---------------------------------------------------------------------------|
D|---------------------------------------------------------------------------|
A|---------------------------------------------------------------------------|
E|---------------------------------------------------------------------------|

e|---------------------------------------------------------------------------|
B|---------------------------------------------------------------------------|
G|-------7-7-----7/9-11---7-7-----7/9-11-------------------------------------|
D|--5----7-7--------------7-7--------------7--2--5----5 x10------------------|
A|--5----5-5--------------5-5--------------7--2--5----5----------------------|
E|--3--------------------------------------5--0--3----3----------------------|
                                                     (....PM...)
chorus
closing verse:
e|---------------------------------------------------------------------------|
B|---------------------------------------------------------------------------|
G|---7-----------7-----------------------------------------------------------|
D|---7--7--2--5--7--7--------------------------------------------------------|
A|---5--7--2--5--5--7--------------------------------------------------------|
E|------5--0--3-----5--------------------------------------------------------|

*any corrections let me know!

===============================================================================
exibições 13.140
Acordes para:
    Composição: Sum 41 Colaboração e revisão:
    • Luiz Azevedo
    • Pedro

    0 comentários

    mostrar mais comentários

    Conseguiu tocar?

    0 tocaram 0 ainda não

    Grave um vídeo tocando Handle This e mande pra gente!

    00:00 / 00:00
    outros vídeos desta música
    repetir qualidade Automático
    Outros vídeos desta música
    00:00 / 00:00
    Automático
    OK