Cifra Club

Aprenda

Motivation

Sum 41

Cifra: Versão 2 (violão e guitarra)
Tom: E
* - Palm Mute
~ - Deixa soar

(Intro)
|-----------------------------------------|  
|-----------------------------------------|  
|-----------------------------------------|        
|---2-2-----------------------------------|     
|---2-2-----------------------------------|   
|---0-0-----------------------------------|

^ repete 4 vezes e cai nisso /

|-----------------------------------------|
|-----------------------------------------|
|------------------------0----------------|
|------------------------0----------------|
|------------------------0----------------|
|-* slide*--------------------------------|

(Riff 1 Parte 1)
|-----------------------------------------|     
|-----------------------------------------|
|-----------------------------------------|
|-2-2-2-6-7-7-----------------------------|
|-2-2-2-6-7-7-----------------------------|
|-0-0-0-4-5-5-----------------------------|

^ repete 3 vezes e depois cai nisso /

(Riff 1 Parte 2)
|-----------------------------------------|
|-----------------------------------------|
|-----------------------------------------|
|-----------------------------------------|
|--9-9-9-6-7-7-7-6------------------------|
|--7-7-7-4-5-5-5-4------------------------|

**** Toca o Riff 1 duas vezes ****

(Verso 1)

|------------------------------------------|
|------------------------------------------|
|------------------------------------------|
|-2-2-2--6-6-6-6---7-7-7-7---9-9-9-9-------|
|-2-2-2--6-6-6-6---7-7-7-7---9-9-9-9-------|
|-0-0-0- 4-4-4-4---5-5-5-5---7-7-7-7-------|
  * *    * * *     * * *     * * *

^ Repete 3 vezes e depois cai nisso /

|-----------------------------------------------|
|-----------------------------------------------|
|-----------------------------------------------|
|-2-2-2--6-6-6-6---7-7---9-9--11-11---13--13----|
|-2-2-2--6-6-6-6---7-7---9-9--11-11---13--13----|
|-0-0-0- 4-4-4-4---5-5---7-7--09-09---11--11----|
  * *    * * *        

(Chorus)

|------------------------------------------------------------------------------|
|------------------------------------------------------------------------------|
|---9--9-9-999-9-9-9----------------------9-9-9-999-9-9-9----------------------|
|---9--9-9-999-9-9-9---9-9-9-999-9-9-9----9-9-9-999-9-9-9---7-7-7-77--9-9-9-99-|
|---7--7-7-777-7-7-7---9-9-9-999-9-9-9----7-7-7-777-7-7-7---7-7-7-77--9-9-9-99-|
|----------------------7-7-7-777-7-7-7----------------------5-5-5-55--7-7-7-77-|

|-------------------------------------------------------------------------------------|
|-------------------------------------------------------------------------------------|
|-------------------------------------------------------------------------------------|
|----7~~~------99999999---------------------------------------------------------------|
|----7~~~------99999999---------------------------------------------------------------|
|----5~~~------77777777---------------------------------------------------------------|

(Riff 1 Parte 1)

|-----------------------------------------|     
|-----------------------------------------|
|-----------------------------------------|
|-2-2-2-6-7-7-----------------------------|
|-2-2-2-6-7-7-----------------------------|
|-0-0-0-4-5-5-----------------------------|

^ repete 3 vezes e depois cai nisso /

(Riff 1 Parte 2)
|-----------------------------------------|
|-----------------------------------------|
|-----------------------------------------|
|-----------------------------------------|
|--9-9-9-6-7-7-7-6------------------------|
|--7-7-7-4-5-5-5-4------------------------|

(Verso 2)

|------------------------------------------|
|------------------------------------------|
|------------------------------------------|
|-2-2-2--6-6-6-6---7-7-7-7---9-9-9-9-------|
|-2-2-2--6-6-6-6---7-7-7-7---9-9-9-9-------|
|-0-0-0- 4-4-4-4---5-5-5-5---7-7-7-7-------|
  * *    * * *     * * *     * * *

^ Repete 3 vezes e depois cai nisso /

|-----------------------------------------------|
|-----------------------------------------------|
|-----------------------------------------------|
|-2-2-2--6-6-6-6---7-7---9-9--11-11---13--13----|
|-2-2-2--6-6-6-6---7-7---9-9--11-11---13--13----|
|-0-0-0- 4-4-4-4---5-5---7-7--09-09---11--11----|
  * *    * * *        

(Chorus)

|------------------------------------------------------------------------------|
|------------------------------------------------------------------------------|
|---9--9-9-999-9-9-9----------------------9-9-9-999-9-9-9----------------------|
|---9--9-9-999-9-9-9---9-9-9-999-9-9-9----9-9-9-999-9-9-9---7-7-7-77--9-9-9-99-|
|---7--7-7-777-7-7-7---9-9-9-999-9-9-9----7-7-7-777-7-7-7---7-7-7-77--9-9-9-99-|
|----------------------7-7-7-777-7-7-7----------------------5-5-5-55--7-7-7-77-|

|-------------------------------------------------------------------------------------|
|-------------------------------------------------------------------------------------|
|-------------------------------------------------------------------------------------|
|----7~~~------99999999---------------------------------------------------------------|
|----7~~~------99999999---------------------------------------------------------------|
|----5~~~------77777777---------------------------------------------------------------|

(Interlúdio)

|-----------------------------------------------------|
|-----------------------------------------------------|
|--------444--2---------------------------------------|
|----2---444--2---------------------------------------|
|----2---222--0---------------------------------------|
|----0------------------------------------------------|

^ Repete 3 vezes e depois cai nisso /

|-----------------------------------------------------|
|-----------------------------------------------------|
|-----------------------------------------------------|
|---44444444-------77777777---------------------------|
|---44444444-------77777777---------------------------|
|---22222222-------55555555---------------------------|
 
(Solinho)

|-------------------------------------------------------|
|-------------------------------------------------------|
|-------------------------------------------------------|
|--22--------------------------77-799-------------------|
|--22-----5--4--2--0-----------77-799-------------------|
|--00------------------4--0----55-577-------------------|

^ Repete 4 vezes ^

(Solinho Parte 2)

|---------------------------------------------------------|
|---4-5-5-4-4-4s5-5-4---4-5-5-4-4-4s5-5-4-----------------|
|---------------------------------------------------------|
|---------------------------------------------------------|
|---------------------------------------------------------|
|---------------------------------------------------------|

|---------------------------------------------------------|
|---0-2-4-5-5-4-2-0-2-0-4-5-4-5-4-5-4-5-------------------|
|---------------------------------------------------------|
|---------------------------------------------------------|
|---------------------------------------------------------|
|---------------------------------------------------------|

(Ponte Parte 1 / Guitarra 1)

|--------------------------------------------------------|
|--------------------------------------------------------|
|--------------------------------------------------------|
|--------44-------22-------------------------------------|
|--22----22--44---00-------------------------------------|
|--00--------22------------------------------------------|


^ Toca essa parte 8 vezes /


(Ponte  Parte 1 / Guitarra 2)

|------------|
|5-5-5-4-5-4-|
|------------|
|------------|
|------------|
|------------|

^ Toca isso ateh entrar nessa parte /

(Ponte parte 2)

|--------------------------------------------------------|
|--------------------------------------------------------|
|--------------------------------------------------------|
|---22-999-444-777----22-444-777-999---------------------|
|---22-999-444-777----22-444-777-999---------------------|
|---00-777-222-555----00-222-555-777---------------------|

|----------------------------------------------------------------------|
|----------------------------------------------------------------------|
|----------------------------------------------------------------------|
|---22-999-444-777----22-444-77777777-99999999-------------------------|
|---22-999-444-777----22-444-77777777-99999999-------------------------|
|---00-777-222-555----00-222-55555555-77777777-------------------------|

(Riff 1 Parte 1)
|-----------------------------------------|     
|-----------------------------------------|
|-----------------------------------------|
|-2-2-2-6-7-7-----------------------------|
|-2-2-2-6-7-7-----------------------------|
|-0-0-0-4-5-5-----------------------------|

^ repete 3 vezes e depois cai nisso /

(Riff 1 Parte 2)
|-----------------------------------------|
|-----------------------------------------|
|-----------------------------------------|
|-----------------------------------------|
|--9-9-9-6-7-7-7-6------------------------|
|--7-7-7-4-5-5-5-4------------------------|

(Ultimo Acorde)

|-----|
|-----|
|-----|
|-2---|
|-2---|
|-0---|

Lyrics:

(Intro and Riff 1)

(Verso 1)
What's the difference of never knowing at all?
When every step I take is always too small.
Maybe it's just something I can't admit but lately,
I feel like I don't give a shit

(Chorus)
Motivation such an aggravation,
Accusations don't know how to take them,
Inspiration's getting hard to fake it.
Concentration's never hard to break it.
Situation never what you want it to be.

(Riff 1)

(Verso 2)
What's the point of never making mistakes?
Self-indulgence such a hard habit to break.
It's all just a waste of time in the end.
I don't care so why should I even pretend.

(Chorus)
Motivation such an aggravation,
Accusations don't know how to take them,
Inspiration's getting hard to fake it.
Concentration's never hard to break it.
Situation never what you wanted

(Interlúdio)
Nothing's new, everything's the same.
Keeps on dragging me down, it's getting kind of lame.
Falling further behind, there's nothing to explain.
No matter what you say nothing's gonna change my mind.

(Solinho Parte 1)

(Solinho Parte 2)
Can't depend on doubt until the end.
It seems like leaving friends has become
This years trend and though I can't pretend.
Im framed to be this way
It's not the same but who's to blame.
For all those stupid things I never said.

(Ponte Parte 1)
Motivation such an aggravation,
Accusations don't know how to take them,
Inspiration's getting hard to fake it.
Concentration's never hard to break it.

(Ponte Parte 2)
Motivation such an aggravation,
Accusations don't know how to take them,
Inspiration's getting hard to fake it.
Concentration
Situation never what you want it to be.

(Riff 1)
Never what you want it to be.
Never what you want it to be.

(Ultimo Acorde)
Composição de Deryck Whibley / Greig Nori
Colaboração e revisão:
  • Ruan Corrêa
1.910 exibições
    • ½ Tom
    • A
    • Bb
    • B
    • C
    • Db
    • D
    • Eb
    • E
    • F
    • F#
    • G
    • Ab
  • Adicionar à lista

    0 comentários

    Mostrar mais comentários

    Conseguiu tocar?

    0 Tocaram 0 Ainda não

    Grave um vídeo tocando Motivation e mande pra gente!

    00:00 / 00:00
    outros vídeos desta música
    repetir qualidade Automático
    Outros vídeos desta música
    00:00 / 00:00
    Automático

    Cifra Club Pro

    Aproveite o Cifra Club com benefícios exclusivos e sem anúncios
    7 dias grátis
    Cifra Club Pro
    Aproveite o Cifra Club com benefícios exclusivos e sem anúncios
    7 dias grátis
    OK