Cifra Club

Nothing On My Back

Sum 41

Cifra: Principal (violão e guitarra)
Tom: A
Tabbed by: Shane Ottosen of Replay 


Intro: Play 4 Times                     "Was happiness.."
e[--------------------]   e[------------------------------------]
B[--------------------]   B[------------------------------------]
G[------77-----7777---]   G[------------------------------------]
D[--7-X-77-5-X-XXXX---]   D[-----------------------------77-----]
A[--7-X-55-5-X-5555---]   A[-------------(Bunch of 5's)--77-----]
E[--5-X----3-X--------]   E[-555555555555555555555555555-55-----]

  "..found again with..."
e[--------------------------------------------------------------]
B[--------------------------------------------------------------]
G[--------------------------------------------------------------]
D[--7-7-x-5-5-x-7-7-x-6-6-----7----77--7-7-x-5-5-x-7-7-x-6-6----]
A[--7-7-x-5-5-x-7-7-x-6-6-----7----77--7-7-x-5-5-x-7-7-x-6-6----]
E[--5-5-x-3-3-x-5-5-x-4-4-----5----55--5-5-x-3-3-x-5-5-x-4-4----]

Chorus: Play 4 Times (Ring out on Ab last time you play)
    A   C   D    Ab
e[--------------------------------------------------------------]
B[--------------------------------------------------------------]
G[----------7777------------------------------------------------]
D[--7-x-5-x-7777-6666-------------------------------------------]
A[--7-x-5-x-5555-6666-------------------------------------------]
E[--5-x-3-x------4444-------------------------------------------]

(Intro: Play 4 Times)

2nd Verse:
e[--------------------------------------------------------------]
B[--------------------------------------------------------------]
G[----------------77-7------------------------------------------]
D[-77-7-55-5-77-7-77-7------------------------------------------]
A[-77-7-55-5-77-7-55-5------------------------------------------]
E[-55-5-33-3-55-5-----------------------------------------------]
  PM.   ..   ..   ..

(Play Chorus)

(Drum Solo)

e[--------------------------------------------------------------]
B[--------------------------------------------------------------]
G[--7\\------7---6-7-7---7---7---6-7-7---7---7---6-7---6-7---6--]
D[--7\\------7-7-6-7---7-----7-7-6-7---7-----7-7-6-7-7-6-7-7-6--]
A[--5\\------5-7-4-5---------5-7-4-5---------5-7-4-5-7-4-5-7-4--]
E[-------------5---------------5---------------5-----5-----5----]

continued..
e[--------------------------------------------------------------]
B[--------------------------------------------------------------]
G[--7---6-------------------------------------------------------]
D[--7-7-6-7-7-7-7-7-7-7-7---7-----------------------------------]
A[--5-7-4-7-7-7-7-7-7-7-7---7-----------------------------------]
E[----5---5-5-5-5-5-5-5-5---5-----------------------------------]
          PM.............

Bass Part: (Play 2 times, then guitar enters)
G[--------------------------------------------------------------]
D[--------------------------------------------------------------]
A[---------5-5-5-5----------------------------------------------]
E[-5-5-5-5---------3-3-3-3-4-4-4-4------------------------------]

e[--------------------------------------------------------------]
B[--- Play 2 times -------- Play 2 times -----------------------]
G[--------------------------------------------------------------]
D[------7777-----------------7777-------------------------------]
A[-7777-5555-5555-6666--7777-5555-5555-6666---------------------]
E[-5555------3333-4444--5555------3333-4444---------------------]
   PM.................  PM.  ...  ...  ...

  Play 4 Times
e[------------------------------------]
B[------------------------------------]
G[---------7-7-7-7--------------------]
D[-7-7-7-7-7-7-7-7-5-5-5-5-6-6-6-6----]
A[-7-7-7-7-5-5-5-5-5-5-5-5-6-6-6-6----]
E[-5-5-5-5---------3-3-3-3-4-4-4-4----]

-------------------------------------------------------------------------------
exibições 5.067
Acordes para:
    Composição: Sum 41 Colaboração e revisão:
    • Pedro

    0 comentários

    mostrar mais comentários

    Conseguiu tocar?

    0 tocaram 0 ainda não

    Grave um vídeo tocando Nothing On My Back e mande pra gente!

    00:00 / 00:00
    outros vídeos desta música
    repetir qualidade Automático
    Outros vídeos desta música
    00:00 / 00:00
    Automático
    OK