Cifra Club

Over My Head

Sum 41

Tab de baixo: Principal
Intro (dpois do soliho da guitarra)
G:|--------------------------------------
D:|--------------------------------------
A:|----------5555--------------5555------ x1
E:|-0000-3333----3333-0000-3333----33-3/-

G:|----------------
D:|----------------
A:|---------5555--- x2
E:|0000-3333----333

Primeiro Verso x4
G:|-----------------
D:|--------55-------
A:|-77-7\-------55-5
E:|-------7---7-----

Primeiro Pre Refrao x1
G:|-------------------------------------------------------------------------------
D:|---5---5------4---4------5---5-----5-----------5---5------4---4----------------
A:|-33--33--33-55--55--55-77--77--7777--7-99-77-33--33--33-55--55--55-7777777777-7
E:|-------------------------------------------------------------------------------

Primeiro Refrao x1
G:|---------------------------------------------------------------------------------
D:|-----------------------------------------------------------------------4---5-----
A:|---------33333333----------55555--55-77777777-1010101010101010-55555555--55-55-5\
E:|-00000000---------33333333-------7-----------------------------------------------

Dpois do Refrao x2
G:|-----------------
D:|-----------------
A:|----33---555-5
E:|-0-----33---7--

Primeiro Verso x4

Segundo Pre Refrao x1
G:|-------------------------------------------------------------------------------
D:|----5---5-----4---4------5---5-----5-----------5---5------7---7----------------
A:|-33--33--33-55--55--55-77--77--7777--7-99-77-33--33--33-55--55--55-7777777777-7
E:|-------------------------------------------------------------------------------



Segundo Refrao x1
G:|-------------------------------------------------------------------------------
D:|----------------------------------------------------------------------4---5--77
A:|----------33333333--------55555--55-77777777-1010101010101010-55555555-55-55---
E:|-00000000---------33333333------5----------------------------------------------

Bridge
G:|------------------------------------------------------------------------------
D:|--------------------------------------------------------------------7777------
A:|---------3-3-3-3----------5--5/7-77-7-77-1010-10-10--10-5-5-5-5-55-5---------- x1
E:|-0-0-0-0---------3-3-3-3-2-2--------------------------------------------------

G:|------------------------------------------------------------------------
D:|--------------------------------------------------------------------7-7-
A:|---------3-3-3-3----------5----5/7-7-7-77-1010-10-10--10---5-5--5-5-----  x1
E:|-0-0-0-0---------3-33-3-3--2-2------------------------------------------

Outro x1
G:|-------------------------------------
D:|------------------5555----77-55-44-55
A:|---------5555---------5555----------- x3
E:|-00000000----2222-------------------- 

G:|--------------------------------------------------------------------------
D:|-----------------5555----777777--\777777-7--------------------------------
A:|---------5555--------5555-------5-------5---------33333333--------55555-55 x1
E:|-00000000----2222-------------------------00000000--------33333333-----7--

G:|-------------------------------------------
D:|------------------------------------4--5--7
A:|-77777777-1010101010101010--55555555-55-55-  x1
E:|-------------------------------------------

Dpois do refrao x3

Final x1
G:|---------------
D:|---------------
A:|----33----55555
E:|-0-----33------


_______________________________________________________
Contribuição: k182(derick_derick@hotmail.com)
exibições 7.653

0 comentários

mostrar mais comentários

Conseguiu tocar?

0 tocaram 0 ainda não

Grave um vídeo tocando Over My Head e mande pra gente!

00:00 / 00:00
outros vídeos desta música
repetir qualidade Automático
Outros vídeos desta música
00:00 / 00:00
Automático
OK