Cifra Club

Pull The Curtain

Sum 41

Cifra: Principal (violão e guitarra)
Tom: C
Gtr.Legends:
/ - slide
h - hammer-on
x - dead string
~ - let it ring
. - palm muting

Gtr.Tuning:Standard(Normal)

Intro prt.1:
Gtr.1
e|------------------------------------|
B|------------------------------------|
G|------------------------------------|
D|-66666-22222---------666666-22222---|
A|-66666-22222---------666666-22222---|
E|-44444-00000---------444444-00000---|

Gtr.2
e|------------------------------------------------|
B|------------------------------------------------|
G|-44444444444444444444444444444444444444444444---|
D|-xxxxxxxxxxxxxxxxxxxxxxxxxxxxxxxxxxxxxxxxxxxx---|
A|-22222222222222222222222222222222222222222222---|
E|------------------------------------------------|

Intro prt.2:
e|-------------------------------------------------------------------------------------------------------|
B|-------------------------------------------------------------------------------------------------------|
G|-------------------------------------------------------------------------------------------------------|
D|--------------66666-22222------2/4-2-1---66666-22222----------------66666-2222--------------------2~---|
A|-22-2/4-2-1-2-66666-22222---22---------2-66666-22222---22-2/4-2-1-2-66666-2222----22-1h2-2-1h2-44-2~---|
E|--------------44444-00000----------------44444-00000----------------44444-0000--------------------0~---|

Verse:
e|-------------------------|
B|-------------------------|
G|-4~----------------------| 2x
D|-4~---4~----6~--4~--2~---| Then
A|-2~---4~----6~--4~--2~---|
E|------2~----4~--2~--0~---|

e|-14-11--------14-11-9~---|
B|-------12~---------------|
G|-------------------------|
D|-------------------------|
A|-------------------------|
E|-------------------------|


Repeat Intro prt.2

Repeat Verse:

Chorus 1:
e|------------------------------------------------------------------|
B|------------------------------------------------------------------|
G|------------------------------------------------------------------|
D|-22222-44444-66666-44444---22222-44444-66666-4444-2222222222222---|
A|-22222-44444-66666-44444---22222-44444-66666-4444-2222222222222---|
E|-00000-22222-44444-22222---00000-22222-44444-2222-0000000000000---|

Bridge:
Gtr.1
e|--------------------------------------------------------|
B|--------------------------------------------------------|
G|-44444--------------------------------------------------|
D|-44444-66666-22222-4444-5555---66666-44444-2222222222---|
A|-22222-66666-22222-4444-5555---66666-44444-2222222222---|
E|-------44444-00000-2222-3333---44444-22222-0000000000---|

Gtr.2
e|----------------------------------11------11------11--------------14-11----------14-11---
B|-1212121212--12-9-12-9-12-9-12-9-----12-9----12-9----9---12-11-9---------12-11-9---------
G|-----------------------------------------------------------------------------------------
D|-----------------------------------------------------------------------------------------
A|-----------------------------------------------------------------------------------------
E|-----------------------------------------------------------------------------------------

-----------------------------------------14-11-----14-11---|
--------------1212-1111--1212-1111---99---------99---------|
-----------------------------------------------------------|
-66666-44444-----------------------------------------------|
-66666-44444-----------------------------------------------|
-44444-22222-----------------------------------------------|

e|--------------------------|
B|--------------------------|
G|-44444--------------------|
D|-44444-66666-2222222222---|
A|-22222-66666-2222222222---|
E|-------44444-0000000000---|
   ..... ..... ..........

Chorus 2:
e|-----------------------------------------|
B|-----------------------------------------|
G|-44444-33333-----------------------------| 2x
D|-44444-33333-66666-44444-2222222222222---|
A|-22222-11111-66666-44444-2222222222222---|
E|-------------44444-22222-0000000000000---|

e|--------------------------      ------|
B|--------------------------      ------|
G|-------------44444-------- 4x   ------|
D|-66666-22222-44444-44444-- Then -6~---|
A|-66666-22222-22222-44444--      -6~---|
E|-44444-00000-------22222--      -4~---|

End...
exibições 4.082
Acordes para:
    Composição: Deryck Whibley Colaboração e revisão:
    • Ruan Corrêa

    0 comentários

    mostrar mais comentários

    Conseguiu tocar?

    2 tocaram 0 ainda não

    Grave um vídeo tocando Pull The Curtain e mande pra gente!

    00:00 / 00:00
    outros vídeos desta música
    repetir qualidade Automático
    Outros vídeos desta música
    00:00 / 00:00
    Automático
    OK