Cifra Club

Screaming Bloody Murder

Sum 41

Cifra: Principal (violão e guitarra)
Tom: A
Cm      Gm     G#m         D#
I'm not quite myself these days
G                         G#m
Guess we all come undone,
             D#                       G
Time to time in different ways, as well
Cm Gm  G#m      D#
I have myself to blame,
G                       G#m
Guess I don''t understand,
     D#               Gm
I need help in many ways.
Cm                 G#m    D# G#m            Cm             G#m     Gm
E|-----------------------|      |---------------------------------------------|
B|-----------------------|      |---------------------------------------------|
G|-----------------------| (3x) |---------------------------------------------|
D|-----------------------|      |---------------------------------------------|
A|-11--10---10-----------|      |-10-11--------11--13--------13-15------------|
E|--------8--------8-8---|      |-------8-8-------------9-9-----------11-11---|

Cm                    G#m
God's got a plain for me?
                               D#
Well I'm gonna' tell you one thing,
                        Gm
I don't got the patience or the time.
Cm
What can I say?
                      D#
I'm no angel, I'm not forsaken
   G#m      Gm
But I can bleed!

D#        G#m        D#
Tear me open, I believe;
                 G#m    D#
God will set you up to bleed.
        G#m         D#
And no one can deceive
           G#m
What is meant to be and,
D#            G#m            G
'Bloody murder' we will scream.

Cm                      G#m
Well I guess it's time for me.
                            D#
Tell me what I'm left to believe
                   Gm                   Cm
'Cause I don't know the concept of the pain
I don't want the faith,
I'll just lose it,
D#
I can prove it,
Gm
Watch me bleed!

D#        G#m        D#
Tear me open, I believe;
                  G#m    D#
God will set you up to bleed.
        G#m                D#
And no one can deceive
           G#m
What is meant to be and,
D#            G#m           Gm
'Bloody murder' we will scream.
D#        G#m
Tear me open.
E|--------------------------------|
B|--------------------------------|
G|--------------------------------|
D|--------------------------------|
E|-----------3-4---------4-3-1----|
A|---3-3-3--------3-3-3-----------|

E|--------------------------------------------------------------------------------------------|
B|--------------------------------------------------------------------------------------13----|
G|-12-12----------12-12---------10-10----------10-10---------12-12-12---10---12----10---------|
D|----------13-13---------13-13---------12-12----------12-12--------------------13------------|
A|--------------------------------------------------------------------------------------------|
E|--------------------------------------------------------------------------------------------|

E|-------------------------------------------8-10-11-13-14-15---15h-16p-15h-16p-15h-16p-------|
B|-16-15-13-11-13-11-8-9-8---8-6-4-6-6-4-3-1--------------------------------------------------|
G|--------------------------------------------------------------------------------------------|
D|--------------------------------------------------------------------------------------------|
A|--------------------------------------------------------------------------------------------|
E|--------------------------------------------------------------------------------------------|

Cm
'Cause I'm (hey!)
Not giving up (hey!)
         D#              Gm             G#m
No sefl control, suffocated to the bone
Cm
I'm my
Worst enemy
            D#                  Gm    G#m
Who can't be saved, I'm just his disgrace.

Refrão:
Cm       Gm        G#m           D#
These days are strange, it's true.
              Gm                  G#m
There's not a thing that I would change,
     D#                  Gm
No mistakes that i'd undo.
exibições 3.962
Acordes para:
    Composição: Deryck Whibley / Tom Thacker Colaboração e revisão:
    • Gabriela Rocznieski

    0 comentários

    mostrar mais comentários

    Conseguiu tocar?

    4 tocaram 0 ainda não

    Grave um vídeo tocando Screaming Bloody Murder e mande pra gente!

    00:00 / 00:00
    outros vídeos desta música
    repetir qualidade Automático
    Outros vídeos desta música
    00:00 / 00:00
    Automático
    OK