Cifra Club

Second chance for max headroom

Sum 41

Cifra: Principal (violão e guitarra)
Tom: C
By:Frédéric Hamel

e|------------------------------------------------------------------------------|
B|------------------------------------------------------------------------------|
G|--5-5-5-5-5-5-5-5-5-5-5-------------------------------------------------------|
D|--5-5-5-5-5-5-5-5-5-5-5--3-2----3-2-----3-3-3-3-3-3-3-3-3--3-2----3-2---------|
A|--3-3-3-3-3-3-3-3-3-3-3------3------3---3-3-3-3-3-3-3-3-3------3------3-------|
E|----------------------------------------1-1-1-1-1-1-1-1-1---------------------|

e|------------------------------------------------------------------------------|
B|------------------------------------------------------------------------------|
G|--5-5-5-5-5-5-5-5-5-5-5-------------------------------------------------------|
D|--5-5-5-5-5-5-5-5-5-5-5--3-2----3-2-----5------------------3------------------|
A|--3-3-3-3-3-3-3-3-3-3-3------3------3---5------------------3------------------|
E|----------------------------------------3------------------1------------------|

e|------------------------------------------------------------------------------|
B|------------------------------------------------------------------------------|
G|--5-5-5-5-5-5-5-5-5-5-5-5-5-5-5-5-----------5-5-5-5---------------------------|
D|--5-5-5-5-5-5-5-5-5-5-5-5-5-5-5-5--3-3-3-3--5-5-5-5--5-5-5-5-5-5-5-5----3--3-3|
A|--3-3-3-3-3-3-3-3-3-3-3-3-3-3-3-3--3-3-3-3--3-3-3-3--5-5-5-5-5-5-5-5----3--3-3|
E|-----------------------------------1-1-1-1-----------3-3-3-3-3-3-3-3----1--1-1|

e|------------------------------------------------------------------------------|
B|------------------------------------------------------------------------------|
G|--5-5-5-5-5-5-5-5------------------5-5-5-5------------------------------------|
D|--5-5-5-5-5-5-5-5---------3-3-3-3--5-5-5-5--5-5-5-5-5-5-5-5-5-5-5-5-----------|
A|--3-3-3-3-3-3-3-3---------3-3-3-3--3-3-3-3--5-5-5-5-5-5-5-5-5-5-5-5-----------|
E|--------------------------1-1-1-1-----------3-3-3-3-3-3-3-3-3-3-3-3-----------|
                                             * *   * *   * *   * *

e|----------------------------------------------------------------------------|
B|----------------------------------------------------------------------------|
G|----------------------------------------------------------------------------|
D|--7--------5--3-3-3-3-3-3-3-3-3-3-3-3-3-3-3-3-------------------------------|
A|--7--------5--3-3-3-3-3-3-3-3-3-3-3-3-3-3-3-3-------------------------------|
E|--5--------3--1-1-1-1-1-1-1-1-1-1-1-1-1-1-1-1-------------------------------|


e|--------------------------------------------------------------------------|
B|--------------------------------------------------------------------------|
G|--5-5-5-5-----------------------------5-5-5-5-----------------------------|
D|--5-5-5-5--3-3-3-3--5-5-5-5--3-3-3-3--5-5-5-5--3-3-3-3--5-5-5-5--3-3-3-3--|
A|--3-3-3-3--3-3-3-3--5-5-5-5--3-3-3-3--3-3-3-3--3-3-3-3--5-5-5-5--3-3-3-3--|
E|-----------1-1-1-1--3-3-3-3--1-1-1-1-----------1-1-1-1--3-3-3-3--1-1-1-1--|


e|----------------------------------------------------------------|
B|----------------------------------------------------------------|
G|--5-5-5-5-5-5-5-5-----------------------------------------------|
D|--5-5-5-5-5-5-5-5--3-2----3-2----3-3-3-3-3-3-3-3--3-2----3-2----|
A|--3-3-3-3-3-3-3-3------3------3--3-3-3-3-3-3-3-3------3------3--|
E|---------------------------------1-1-1-1-1-1-1-1----------------|

e|-------------------------------------------------------------------------|
B|-------------------------------------------------------------------------|
G|--5-5-5-5-5-5-5-5--------------------------------------------------------|
D|--5-5-5-5-5-5-5-5--3-2----3-2----------------0-2-3-----------------------|
A|--3-3-3-3-3-3-3-3------3------3-------0-2-3------------------------------|
E|-----------------------------------3-------------------------------------|

  Guitar 1
e|---------------------------------------------------------------------------|
B|--8--6--5h6-5h6------------------------------------------------------------|
G|---------------------------------------------------------------------------|
D|---------------------------------------------------------------------------|
A|---------------------------------------------------------------------------|
E|---------------------------------------------------------------------------|

  Guitar 2
e|---------------------------------------------------------------------------|
B|---------------------------------------------------------------------------|
G|---------------------------------------------------------------------------|
D|-5-3--2h3--2h3-------------------------------------------------------------|
A|---------------------------------------------------------------------------|
E|---------------------------------------------------------------------------|

e|---------------------------------------------------------------------|
B|----------------------------------------------------------------------|
G|--5-5-5-5-5-5-5-5-5-5-5-5-5-5-5-5-----------5-5-5-5-------------------|
D|--5-5-5-5-5-5-5-5-5-5-5-5-5-5-5-5--3-3-3-3--5-5-5-5--5-5-5-5-5-5-5-5--|
A|--3-3-3-3-3-3-3-3-3-3-3-3-3-3-3-3--3-3-3-3--3-3-3-3--5-5-5-5-5-5-5-5--|
E|-----------------------------------1-1-1-1-----------3-3-3-3-3-3-3-3--|
                                   |             p.m                  |

e|----------------------------------------------------------------------|
B|-----------------------------------------------------------------------|
G|-----------------------------------------------------------------------|
D|--7-7-7-7--3-3-3-3--7-7-7-7--3-3-3-3--5-5-5-5--3-3-3-3-----------------|
A|--7-7-7-7--3-3-3-3--7-7-7-7--3-3-3-3--5-5-5-5--3-3-3-3-----------------|
E|--5-5-5-5--1-1-1-1--5-5-5-5--1-1-1-1--3-3-3-3--1-1-1-1-----------------|
  |                         p.m                        |

e|-------------------------------------------------------------|
B|--5--6--8--10-12-10--8--10--8---5--5-6-8--5-6-8--6--8-6-5-6--|
G|-------------------------------------------------------------|
D|-------------------------------------------------------------|
A|-------------------------------------------------------------|
E|-------------------------------------------------------------|

e|------------------------------------------------------------------|
B|--6p5-6p5-6p5-6p5-6p5-6p5--10--8----6p5-6p5-6p5-6p5-6p5-6p5--10-8-|
G|------------------------------------------------------------------|
D|------------------------------------------------------------------|
A|------------------------------------------------------------------|
E|------------------------------------------------------------------|

e|------------------------------------------------------------------|
B|--6p5-6p5-6p5-6p5-6p5-6p5--10--8---6p5-6p5-6p5-6p5-6p5-6p5--10--8-|
G|------------------------------------------------------------------|
D|------------------------------------------------------------------|
A|------------------------------------------------------------------|
E|------------------------------------------------------------------|

e|------------------------------------------------------------------------------|
B|--5----5-6-8--6--5----5-6-8--6--5----5-6-8--6--8-6-5-6-8-6-5-6--13------------|
G|------------------------------------------------------------------------------|
D|------------------------------------------------------------------------------|
A|------------------------------------------------------------------------------|
E|------------------------------------------------------------------------------|

e|---------------------------------------------------------------------------|X4
B|-8-8-8--10-10-10--6-6-6--5-5-5---------------------------------------------|
G|---------------------------------------------------------------------------|
D|---------------------------------------------------------------------------|
A|---------------------------------------------------------------------------|
E|---------------------------------------------------------------------------|

e|----------------------------------------------------------------------------|
B|--6p5-6p5-6p5-6p5-6p5-6p5-6p5-6p5--6----------------------------------------|
G|----------------------------------------------------------------------------|
D|----------------------------------------------------------------------------|
A|----------------------------------------------------------------------------|
E|----------------------------------------------------------------------------|

e|-----------------------------------------------------------------------|
B|-----------------------------------------------------------------------|
G|--5-5-5-5-5-5-5-5-------------------5-5-5-5-5-5-5-5--------------------|
D|--5-5-5-5-5-5-5-5--3-3-3-3-3-3-3-3--5-5-5-5-5-5-5-5--5-5-5-5--3-3-3-3--|
A|--3-3-3-3-3-3-3-3--3-3-3-3-3-3-3-3--3-3-3-3-3-3-3-3--5-5-5-5--3-3-3-3--|
E|-------------------1-1-1-1-1-1-1-1-------------------3-3-3-3--1-1-1-1--|
  |                                p.m                                |

e|-----------------------------------------------------------------------|X4
B|-----------------------------------------------------------------------|
G|--5-5-5-5-5-5-5-5-------------------5-5-5-5-5-5-5-5--------------------|
D|--5-5-5-5-5-5-5-5--3-3-3-3-3-3-3-3--5-5-5-5-5-5-5-5--5-5-5-5--3-3-3-3--|
A|--3-3-3-3-3-3-3-3--3-3-3-3-3-3-3-3--3-3-3-3-3-3-3-3--5-5-5-5--3-3-3-3--|
E|-------------------1-1-1-1-1-1-1-1-------------------3-3-3-3--1-1-1-1--|

===============================================================================
exibições 1.965
Acordes para:
    Composição: Sum 41 Colaboração e revisão:
    • Pedro

    0 comentários

    mostrar mais comentários

    Conseguiu tocar?

    0 tocaram 0 ainda não

    Grave um vídeo tocando Second chance for max headroom e mande pra gente!

    00:00 / 00:00
    outros vídeos desta música
    repetir qualidade Automático
    Outros vídeos desta música
    00:00 / 00:00
    Automático
    OK