Cifra Club

Aprenda

Still Waiting

Sum 41

Tab de baixo: Principal
Notes - Standard Tuning [EADG]

Intro (After Guitar & Vocals Opening)
G|---------------|----------------|----------------|----------------|
D|---------------|----------------|----------------|----------------|
A|-------33333333|--------33332222|--------33333333|--------33332222|
E|0000000--------|00000000--------|00000000--------|00000000--------|

Verse
G|-------------------|----------------|-------------------|-----------------|
D|-------------------|----------------|-------------------|-----------------|
A|--------1p0-1p0----|----------------|--------1p0-1p0-1p0|--------22222/555|
E|00000000---3---33/5|000000003xx3xx3x|00000000---3---3---|33333333---------|

G|-------------------|----------------|-------------------|-----------------|---------------|
D|-------------------|----------------|-------------------|-----------------|---------------|
A|--------1p0-1p0----|----------------|--------1p0-1p0-1p0|--------22222222/|14141414141414\|
E|00000000---3---33/5|000000003xx3xx3x|00000000---3---3---|33333333---------|---------------|

Chorus
G|----------------|-----------------|----------------|-----------------|
D|----------------|-----------------|----------------|-----------------|
A|--------33333333|--------22222222/|7777777733333333|--------22222/55-|
E|00000000--------|33333333---------|----------------|33333333---------|

Gap
G|--------|--------|--------|--------|
D|--------|--------|--------|--------|
A|--------|333-----|--------|333-2-2-|
E|000-----|--------|000-----|--------|

Then play the verse again, all the way through

Chorus 2
G|----------------|-----------------|----------------|---------------------------|
D|----------------|-----------------|----------------|---------------------------|
A|--------33333333|--------22222222/|77777777--------|1010101010101010-99999/1414|
E|00000000--------|33333333---------|--------88888888|---------------------------|

Bridge
G|----------------|----------------|--------------------------------|
D|----------------|----------------|--------------------------------|
A|--------33333333|--------22222222|--------33333333--------22222222|
E|00000000--------|33332222--------|00000000--------33332222--------|

G|----------------|----------------|----------------|----------------|
D|----------------|----------------|----------------|--------5555----|
A|--------33335555|--------33335555|--------33335555|77777777----5555|
E|00000000--------|00000000--------|00000000--------|----------------|

G|--------|--------|--------|--------|
D|--------|--------|--------|--------|
A|--------|333-----|--------|222-----|
E|000-----|--------|333-----|--------|

G|----------------|----------------|----------------|-----------------|
D|----------------|----------------|----------------|-----------------|
A|--------33333333|--------22222---|--------33333333|-----------------|
E|00000000--------|33333333------3-|00000000--------|3333333377777/12\|

G|----------------|----------------|----------------|---------------------------------|
D|----------------|----------------|----------------|---------------------------------|
A|--------33333333|--------22222222|--------33333333|--------22222222/14141414141414\-|
E|00000000--------|33333333--------|00000000--------|33333333-------------------------|

Chorus 3
G|----------------|----------------|----------------|----------------|
D|----------------|----------------|----------------|----------------|
A|--------33333333|--------22222222|--------33333333|--------22222222|
E|00000000--------|33333333--------|00000000--------|33333333--------|

Chorus
G|----------------|-----------------|----------------|-----------------------------|
D|----------------|-----------------|----------------|-----------------------------|
A|7777777733333333|--------22222222/|77777777--------|1010101010101010-999914141414|
E|----------------|33333333---------|--------88888888|-----------------------------|

Outro
G|--------|--------|
D|--------|--------|
A|--------|--------|
E|00000000|0-------|


_______________________________________________________
Contribuição: Gabriel Fernandes do Nascimento(gabrielonline@globo.com)
Composição de Deryck Whibley / Greig Nori
11.231 exibições

0 comentários

Mostrar mais comentários

Conseguiu tocar?

0 Tocaram 0 Ainda não

Grave um vídeo tocando Still Waiting e mande pra gente!

00:00 / 00:00
outros vídeos desta música
repetir qualidade Automático
Outros vídeos desta música
00:00 / 00:00
Automático

Cifra Club Pro

Aproveite o Cifra Club com benefícios exclusivos e sem anúncios
7 dias grátis
Cifra Club Pro
Aproveite o Cifra Club com benefícios exclusivos e sem anúncios
7 dias grátis
OK