Cifra Club

Aprenda

Still Waiting

Sum 41

Tab de baixo: Versão 4
Intro:
G|----------------------------------------------------------------------------------
D|----------------------------------------------------------------------------------
A|-----------33333333----------3333-22-------------33333333----------3333-22--------
E|---0000000----------00000000---------33-00000000----------00000000---------33-----

Verse:
G|----------------------------------------------------------------------------------
D|----------------------------------------------------------------------------------
A|-----------1p0-1p0------------------------1p0-1p0-----------------22222222--------
E|---00000000---3---000000003xx3xx3x00000000---3---33333333-------------------------

G|----------------------------------------------------------------------------------
D|----------------------------------------------------------------------------------
A|-----------1p0-1p0------------------------1p0-1p0---------------2222222222222222--
E|---00000000---3---000000003xx3xx3x00000000---3---33333333-------------------------

Chorus:
G|----------------------------------------------------------------------------------
D|---22222222----------------------------22222222-----------------------------------
A|------------33333333----------22222222----------33333333----------22222222--------
E|---------------------33333333----------------------------33333333-----------------

Break:
G|----------------------------------------------------------------------------------
D|----------------------------------------------------------------------------------
A|-------333------333-2-------------------------------------------------------------
E|---000------000-------3-----------------------------------------------------------

Verse:
G|----------------------------------------------------------------------------------
D|----------------------------------------------------------------------------------
A|-----------1p0-1p0------------------------1p0-1p0----------22222222---------------
E|---00000000---3---000000003xx3xx3x00000000---3---33333333-------------------------

G|----------------------------------------------------------------------------------
D|----------------------------------------------------------------------------------
A|-----------1p0-1p0------------------------1p0-1p0-----------------2222222222222222
E|---00000000---3---000000003xx3xx3x00000000---3---33333333-------------------------

Chorus:
G|-----------------------------------------------------------------------4444-------
D|---22222222----------------------------22222222----------55555555-4444------------
A|------------33333333----------22222222----------33333333--------------------------
E|---------------------33333333-----------------------------------------------------

Bridge:
G|----------------------------------------------------------------------------------
D|----------------------------------------------------------------------------------
A|------------33333333----------22222222----------33333333----------22222222--------
E|---00000000----------33333333----------00000000----------33333333-----------------

G|----------------------------------------------------------------------------------
D|------------------------------------------------------------22222222-5555---------
A|------------3333-5555----------3333-5555----------3333-5555---------------5555----
E|---00000000-----------00000000-----------00000000---------------------------------

G|----------------------------------------------------------------------------------
D|----------------------------------------------------------------------------------
A|-------333-----222----------33333333----------2222---2----------33333333~~~~~~~~~~
E|---000-----333-----00000000----------33333333------3---00000000----------33333333-

"What have we done?..."
G|----------------------------------------------------------------------------------
D|----------------------------------------------------------------------------------
A|------------33333333----------22222222----------33333333----------2222222222222222
E|---00000000----------33333333----------00000000----------33333333-----------------

Chorus:
G|----------------------------------------------------------------------------------
D|---22222222----------------------------22222222-----------------------------------
A|------------33333333----------22222222----------33333333----------22222222--------
E|---------------------33333333----------------------------33333333-----------------

G|--------------------------------------------------------------------4444-999999999
D|---22222222----------------------------2222222---------55555555-4444--------------
A|------------33333333----------22222222---------3333333----------------------------
E|---------------------33333333-----------------------------------------------------
Composição de Deryck Whibley / Greig Nori
255 exibições

0 comentários

Mostrar mais comentários

Conseguiu tocar?

0 Tocaram 0 Ainda não

Grave um vídeo tocando Still Waiting e mande pra gente!

00:00 / 00:00
outros vídeos desta música
repetir qualidade Automático
Outros vídeos desta música
00:00 / 00:00
Automático
OK