Cifra Club

Summer

Sum 41

Cifra: Principal (violão e guitarra)
Tom: D
By:Frédéric Hamel

  Guitar 1
Intro
e|----------------------------------------------------------------------------|X6
B|-10-10-10--8-8-8--7-7-7-7p8--7----------------------------------------------|
G|-7-7-7----7-7-7--7-7-7-7---7------------------------------------------------|
D|----------------------------------------------------------------------------|
A|----------------------------------------------------------------------------|
E|----------------------------------------------------------------------------|

  Guitar 2
e|---------------------------------------------------------------------------|
B|---------------------------------------------------------------------------|
G|-7-4-----------------------------------------------------------------------|
D|-7-4-5-7-------------------------------------------------------------------|
A|-5-2-5-7-------------------------------------------------------------------|
E|-----3-5-------------------------------------------------------------------|

  Guitar 1
e|--------------------------------------------------------------------------------|
B|--------------------------------------------------------------------------------|
G|--7-9-9-11-11-12-11---7-9-9-11-11-12-14----7-9-9-11-11-12-11---7-9-9-11-9-11-9--|
D|--x-x-x--x--x--x--x---x-x-x--x--x--x--x----x-x-x--x--x--x--x---x-x-x--x-x--x-x--|
A|--5-7-7--9--9-10--9---5-7-7--9--9-10-12----5-7-7--9--9-10--9---5-7-7--9-7--9-7--|
E|--------------------------------------------------------------------------------|

  Guitar 2
e|---------------------------------------------------------------------------|
B|---------------------------------------------------------------------------|
G|-7-7-7-7--4-4-4-4----------------------------------------------------------|
D|-7-7-7-7--4-4-4-4--5-5-5-5--7-7-7-7----------------------------------------|
A|-5-5-5-5--2-2-2-2--5-5-5-5--7-7-7-7----------------------------------------|
E|-------------------3-3-3-3--5-5-5-5----------------------------------------|

e|---------------------------------------------------------------------------|X4
B|---------------------------------------------------------------------------|
G|-7-7-7-7--4-4-4-4----------------------------------------------------------|
D|-7-7-7-7--4-4-4-4--2-2-2-2--5-5-5-5----------------------------------------|
A|-5-5-5-5--2-2-2-2--2-2-2-2--5-5-5-5----------------------------------------|
E|-------------------0-0-0-0--3-3-3-3----------------------------------------|
  rejouer les  dernières parties

e|---------------------------------------------------------------------------|
B|---------------------------------------------------------------------------|
G|------7-7-7-7-------------------7-7-7-7------------------------------------|
D|-2-5--7-7-7-7-4-4-4-4--5-5-5-5--7-7-7-7--4-4-4-4--5-5-5-5------------------|
A|-2-5--5-5-5-5-4-4-4-4--5-5-5-5--5-5-5-5--4-4-4-4--5-5-5-5------------------|
E|-0-3----------2-2-2-2--3-3-3-3-----------2-2-2-2--3-3-3-3------------------|

e|---------------------------------------------------------------------------|X6
B|---------------------------------------------------------------------------|
G|-7-7-7-7--4-4-4-4----------------------------------------------------------|
D|-7-7-7-7--4-4-4-4--5-5-5-5--7-7-7-7----------------------------------------|
A|-5-5-5-5--2-2-2-2--5-5-5-5--7-7-7-7----------------------------------------|
E|-------------------3-3-3-3--5-5-5-5----------------------------------------|

 Guitar 1
e|--------------------------------------------------------------------------------|X2
B|--------------------------------------------------------------------------------|
G|--7-9-9-11-11-12-11---7-9-9-11-11-12-14----7-9-9-11-11-12-11---7-9-9-11-9-11-9--|
D|--x-x-x--x--x--x--x---x-x-x--x--x--x--x----x-x-x--x--x--x--x---x-x-x--x-x--x-x--|
A|--5-7-7--9--9-10--9---5-7-7--9--9-10-12----5-7-7--9--9-10--9---5-7-7--9-7--9-7--|
E|--------------------------------------------------------------------------------|

  Guitar 2
e|---------------------------------------------------------------------------|X2
B|---------------------------------------------------------------------------|
G|-7-7-7-7--4-4-4-4----------------------------------------------------------|
D|-7-7-7-7--4-4-4-4--5-5-5-5--7-7-7-7----------------------------------------|
A|-5-5-5-5--2-2-2-2--5-5-5-5--7-7-7-7----------------------------------------|
E|-------------------3-3-3-3--5-5-5-5----------------------------------------|

e|---------------------------------------------------------------------------|X4
B|---------------------------------------------------------------------------|
G|-7----------4--------------------------------------------------------------|
D|-7----------4----------5----------7----------------------------------------|
A|-5-5-5-5-5--2-2-2-2-2--5----------7----------------------------------------|
E|-----------------------3-3-3-3-3--5-5-5-5-5--------------------------------|
    |  p.m  |  |  p.m  |  |  p.m  |  |  p.m  |

e|---------------------------------------------------------------------------|
B|---------------------------------------------------------------------------|
G|---7-7-7-7-------------------7-7-7-7---------------------------------------|
D|---7-7-7-7-4-4-4-4--5-5-5-5--7-7-7-7--4-4-4-4--5-5-5-5---------------------|
A|---5-5-5-5-4-4-4-4--5-5-5-5--5-5-5-5--4-4-4-4--5-5-5-5---------------------|
E|-----------2-2-2-2--3-3-3-3-----------2-2-2-2--3-3-3-3---------------------|

e|---------------------------------------------------------------------------|X6
B|---------------------------------------------------------------------------|
G|-7-7-7-7--4-4-4-4----------------------------------------------------------|
D|-7-7-7-7--4-4-4-4--5-5-5-5--7-7-7-7----------------------------------------|
A|-5-5-5-5--2-2-2-2--5-5-5-5--7-7-7-7----------------------------------------|
E|-------------------3-3-3-3--5-5-5-5----------------------------------------|
exibições 10.873
Acordes para:
    Composição: Sum 41 Colaboração e revisão:
    • Pedro

    0 comentários

    mostrar mais comentários

    Conseguiu tocar?

    1 tocaram 0 ainda não

    Grave um vídeo tocando Summer e mande pra gente!

    00:00 / 00:00
    outros vídeos desta música
    repetir qualidade Automático
    Outros vídeos desta música
    00:00 / 00:00
    Automático
    OK