Cifra Club

The Hell Song (Acoustic)

Sum 41

Cifra: Principal (violão e guitarra)
Tom: Db (forma dos acordes no tom de C) Capotraste na 1ª casa
[Intro]  Am F7M C C\B (2x)

Riff 1:

Dave:  e|---------------------------------------------|
       B|---------------------------------------------|
       G|---------------------------------------------|
       D|-------------3-------------------------------|
       A|-------4-6------5----------------------------|
       E|---6---------------2-------------------------|
 
Tom:   e|---------------------------------------------|
       B|---------------------------------------------|
       G|---------------------------------------------|
       D|---2------2----------------------------------|
       A|-----3-5-----3-------------------------------|
       E|----------------3----------------------------|

[Verso 1]
 Am                       F7M     C                   C/B
  Everybody's got their problems  Everybody says the same things to you
 Am                            F7M
  It's just a matter of how you solve them
 C                              C/B
  And knowing how to change the things you've been through
 Am             F7M             C             C/B
  I feel I've come to realize how fast life can be compromised
 Am              F7M                C         C/B
  Step back to see what's going on I can't believe this happened to you (this happened to you)


 Am F7M C C/B (Riff 1)

[Verso 2]
Am                                F7M
 It's just a problem that we're faced with am I 
C                      C/B
 not the only one who hates to stand by
Am                     F7M
 Complications ended first in this line 
C                                C/B
 with all this pictures running through my mind
Am               F7M           C         C/B
 knowing endless consequences I feel so useless in this 
Am               F7M              C           C/B
 Get back step back and as for me I can't believe


[Refrão]
        Am          F7M                C               C/B
Part of me won't agree cause I don't know if it's for sure
       Am        F7M        C          C/B
Suddenly suddenly I don't feel so insecure   
        Am          F7M                C               C/B
Part of me won't agree cause I don't know if it's for sure
       Am        F7M        C          C/B
Suddenly suddenly I don't feel so insecure 
       Am F7M C C/B
Anymore 

[Solo]
Dave:  e|----------------------------------------------------------------------|
       B|----------------------------------------------------------------------|
       G|-13p10--13p10-10--13p10-13p10-10---10-10h11-11-11-11p10--11p10-\8-\6--|
       D|----------------------------------------------------------------------|
       A|----------------------------------------------------------------------|
       E|----------------------------------------------------------------------|

       e|----------------------------------------------------------------------|
       B|----------------------------------------------------------------------|
       G|-6-6h8-6-\5-6-6-6p5-6-6-6p5-555-333-555-333---------------------------|
       D|----------------------------------------------------------------------|
       A|----------------------------------------------------------------------|
       E|----------------------------------------------------------------------|
 
 
Tom:   e|---------------------------------------3-3\------------------3-3\----------------|
       B|---------------------------------------------1-1----------------------1-1--------|
       G|-4/-5/-7/--9------9\-7\-5--------2/5------------------2/5------------------------|
       D|---------------------------------------------------------------------------------|
       A|-2/-3/-5/--7------7\-5\-3--------------------------------------------------------|
       E|---------------------------------------------------------------------------------|

       e|-------------------------------------------------------------------------------------|
       B|-0h1p0-------------------------------------------------------------------------------|
       G|--------0h2p0------------------------------------------------------------------------|
       D|---------------0h2p0-----------------------------------------------------------------|
       A|------------------------3-----3--2p0h2-----------------------------------------------|
       E|---------------------------5-------------3-------------------------------------------|

[Chorus]
        Am          F7M                C               C/B
Part of me won't agree cause I don't know if it's for sure
       Am        F7M        C          C/B
Suddenly suddenly I don't feel so insecure   
        Am          F7M                C               C/B
Part of me won't agree cause I don't know if it's for sure
       Am        F7M        C          C/B
Suddenly suddenly I don't feel so insecure 
       Am F7M C C/B
Anymore 

       Am F7M C C/B    Am
Anymore
exibições 485
Acordes para:
    Colaboração e revisão:
    • Jean Biotto

    0 comentários

    mostrar mais comentários

    Conseguiu tocar?

    1 tocaram 0 ainda não

    Grave um vídeo tocando The Hell Song (Acoustic) e mande pra gente!

    00:00 / 00:00
    outros vídeos desta música
    repetir qualidade Automático
    Outros vídeos desta música
    00:00 / 00:00
    Automático
    OK