Cifra Club

Underclass Hero

Sum 41

Cifra: Principal (violão e guitarra)
Tom: E
Gtr.Legends:
. - palm muting
x - dead string
~ - let it ring
h - hammer-on
p - pull-off
/ - slide
b - bend

Gtr.Tuning:Standard(Normal)

Intro prt.1:
e|---------------------------------------------------|
B|---------------------------------------------------|
G|---------------------------------------------------|  2x
D|------6h7-6-------6h7-6--------6h7-6---------------|
A|----7-----------7--------00-7--------00-7--00------|
E|-00---------77---------------------------------7---|
   ..         ..           ..                  

Intro prt.2:
Gtr.1
e|----------------------------------------|
B|----------------------------------------|
G|-99-------------------------------------| 2x
D|-99-6h7p6--99-6h7p6--77-6h7p6--77-7-9---|
A|-77--------99--------77--------77-7-9---|
E|-----------77--------55--------55-5-7---|
   ..        ..        ..        .. 

Gtr.2
e|-------------------------------------|
B|-------------------------------------|
G|-99-9999--------------9999-----------| 2x
D|-99-xxxx--99-9999--77-xxxx--77-7-9---|
A|-77-7777--99-xxxx--77-7777--77-7-9---|
E|----------77-7777--55-------55-5-7---|
   ..       ..       ..       ..   

Verse:
Gtr.1
e|----------------------------------|
B|----------------------------------|
G|------9999999999999999999999999---|
D|-222--xxxxxxxxxxxxxxxxxxxxxxxxx---|
A|-222--7777777777777777777777777---|
E|-000------------------------------|

Gtr.2
e|--------------------------------------------------|
B|--------------------------------------------------|
G|--------------------------------------------------| 2x
D|------6------------6-----------6------------------| 
A|----7---7--------7---7-------7---7-------7----9---|
E|-00----------77-----------9-----------55---77-----|

Pre-Chorus:
Gtr.1
e|------------------------|
B|------------------------|
G|-------4444-9999--------| 2x
D|-22222-4444-9999-7777---|
A|-22222-2222-4444-7777---|
E|-00000-----------5555---|

Gtr.2
e|-------------------------------------|
B|-------------------------------------|
G|-999999999999999999999999999999999---|
D|-xxxxxxxxxxxxxxxxxxxxxxxxxxxxxxxxx---|
A|-777777777777777777777777777777777---|
E|-------------------------------------|

Chorus:
e|------------------|
B|------------------|
G|-2222------4444---| 4x
D|-2222-2222-4444---|
A|-0000-2222-2222---|
E|------0000--------|

Pre-Verse 2:
e|----------------------------------------|
B|----------------------------------------|
G|-99-------------------------------------| 2x
D|-99-6h7p6--99-6h7p6--77-6h7p6--77-7-9---|
A|-77--------99--------77--------77-7-9---|
E|-----------77--------55--------55-5-7---|
   ..        ..        ..        ..

Verse 2:
Play Verse 1 w/ Jet Effect

Repeat Pre-Chorus:

Repeat Chorus:

Bridge prt.1
e|--------------------------------|
B|--------------------------------|
G|-99999999--999999--9999999999---|
D|-xxxxxxxx--xxxxxx--xxxxxxxxxx---|
A|-77777777--777777--7777777777---|
E|--------------------------------|

Bridge prt.2(Solo):
Gtr.1:Play Chorus

Gtr.2
e|----------------------------5---------|
B|--------------------------4---4-5-7---|
G|--------------------------------------| 2x
D|-22-2-4-2---2-4-6-4-4p2-4-------------|
A|----------2---------------------------|
E|--------------------------------------|

e|---5---5------------------------------------------------------------------|
B|-5---5---5~~-44-4-5-4---5b-4b---------------------------------------------|
G|----------------------4------------------------------------2-1-1h2-1------|
D|--------------------------------22-2-4-2---2-4-6--4-2-4--2-----------2~---|
A|---------------------------------------------------------------------2~---|
E|---------------------------------------------------------------------0~---|

Repeat Intro prt.1

Repeat Chorus:

Repeat Intro prt.2:

Lst Chords:
e|-------|
B|-------|
G|-------|
D|-2-2---|
A|-2-2---|
E|-0-0---|
   . .

E acaba aqui...

Letra:


Verse 1
And I wanna believe (Well you?re frankly nothing)
Stand on my own (A little sympathy)
Wasting the youth (I?m feeling young and useless)
Speak for yourself (Some blindfolded cause)

Chorus:
Well because we're doing fine
And we don't need to be told
That we're doing fine
Cause we won't give you control
And we don't need anything from you
Cause we'll be just fine
And we won't be bought and sold
Just like you

(A call crossing in the crowd)

Bridge:
Calling out loud with no respect
I'm not the one, just another reject
I'm the voice you affect I?ll lose and protect
I saw your up against the great America we?ll rise again"

Repeat Chorus
exibições 20.676
Acordes para:
    Composição: Deryck Whibley / Stevo Colaboração e revisão:
    • Ruan Corrêa

    0 comentários

    mostrar mais comentários

    Conseguiu tocar?

    1 tocaram 0 ainda não

    Grave um vídeo tocando Underclass Hero e mande pra gente!

    00:00 / 00:00
    outros vídeos desta música
    repetir qualidade Automático
    Outros vídeos desta música
    00:00 / 00:00
    Automático
    OK