Cifra Club

We're The Same

Sum 41

Cifra: Principal (violão e guitarra)
Tom: C
Intro:

Deryck:
E|-5--5--5--5-|
B|-5--5--5--5-|
G|-5--5--5--5-|
D|-7--7--7--7-|
A|-7--7--7--7-|
E|-5--5--5--5-|

Tom:
E|-10-8-7--8-7-5--10--8--7---|
B|-------------------------8-|
G|---------------------------|
D|---------------------------|
A|---------------------------|
E|---------------------------|

E|-5-----7------8-------7-------5-----7-------8-------10------|
B|---5------5------5-------5------5------5-------5--------5---|
G|-----5------5------5-------5------5------5-------5--------5-|
D|------------------------------------------------------------|
A|------------------------------------------------------------|
E|------------------------------------------------------------|

Deryck:
E|--------------------------|-------------------------|
B|--------------------------|-------------------------|
G|--------------------------|-------------------------|
D|--------------------------|----------0--2--3--2-0---|
A|-0--3--2--3--5---2-3--3-2-|-0--2--3---------------3-|
E|--------------------------|-------------------------| x3

Tom:
E|---------|---------|---------|---------|
B|---------|---------|---------|---------|
G|---------|---------|---------|---------|
D|-7-7-7-7-|-5-5-5-5-|-4-4-4-4-|-3-3-3-3-|
A|-7-7-7-7-|-5-5-5-5-|-5-5-5-5-|-3-3-3-3-|
E|-5-5-5-5-|-3-3-3-3-|-2-2-2-2-|-1-1-1-1-|


Verse 1:
Am                        C    G
  I don't expect you to believe
Am
  Cause through those eyes of yours
    C                 G
you see just what you want to see
Am                             C     G
  Pieces of all your shattered dreams
Am
  If you keep your head so low
       C              G
you'll never see what you can be


Chorus:
              Am
(take a look around)
          G
We're the same in all
F             C
different ways
              Am
(take a look around)
          G
We're the same in all
F             E
different ways
               Am
Do you want to really
     G      D/F#          F
fight about differences tonight?
              Am
(take a look around)
          G
We're the same in
    F             C
all different ways
    E
But I I don't expect
you to believe

Post Chorus:
Am - G - D/F# - F - x2

Deryck:
E|--------------------------|-------------------------|
B|--------------------------|-------------------------|
G|--------------------------|-------------------------|
D|--------------------------|-------------2--3--2-0---|
A|-0--3--2--3--5---2-3--3-2-|-0--3--2--3------------3-|
E|--------------------------|-------------------------|

Tom:
E|---------|---------|---------|---------|
B|---------|---------|---------|---------|
G|---------|---------|---------|---------|
D|-7-7-7-7-|-5-5-5-5-|-4-4-4-4-|-3-3-3-3-|
A|-7-7-7-7-|-5-5-5-5-|-5-5-5-5-|-3-3-3-3-|
E|-5-5-5-5-|-3-3-3-3-|-2-2-2-2-|-1-1-1-1-|


Verse 2:
Am
  Just when you think
               C  G
you're race is run
Am
  And you're left standing there
     C               G
with all your laces still undone
Am                             C  G
  It's like the end has just begun
Am
  And you feel so alone
    C                   G
but know you're not the only one

(Repeat Chorus)

Solo:
E|-----------------------------|-8-5-----------------------|-----------------------|
B|-----5-----5-----5-----5-----|-----8-5-------------------|-------------5~--------|
G|-7b9---7b9---7b9---7b9---7b9-|---------7-5---5-7b9r7-----|-7-5---5h7p5-7--5---5--|
D|-----------------------------|-------------7-------------|-----7------------7----|
A|-----------------------------|---------------------------|-----------------------|
E|-----------------------------|---------------------------|-----------------------|

E|-8-5-----------------|-5-------------------|--{---------------}----------|
B|-----8-5-------------|---8-6-5h6p6---------|--{---------------}----------|
G|---------7-5---5-----|-------------7-5---5-|--{---------------}-5---5-7--|
D|-------------7-------|-----------------7---|--{---------5-7-5-}---7------|
A|---------------------|---------------------|--{-----5-7-------}----------|
E|---------------------|---------------------|--{-5-8-----------}----------|

E|------------------------------------------------------|
B|-7/8-8/10-10/12-12/13-10/12-12/13-13/15-15/17-15/-----|
G|------------------------------------------------------|
D|------------------------------------------------------|
A|------------------------------------------------------|
E|------------------------------------------------------|

Verse 3:
Am                        C    G E
  I don't expect you to believe
Am
  Cause through those eyes of yours
    C                 G       E
you see just what you want to see
Am                             C     G E
  Pieces of all your shattered dreams
Am
  If you keep your head so low
       C              E(hold)
you'll never see what you can be

(Repeat Chorus)

Deryck:
E|--------------------------|-------------------------|
B|--------------------------|-------------------------|
G|--------------------------|-------------------------|
D|--------------------------|----------0--2--3--2-0---|
A|-0--3--2--3--5---2-3--3-2-|-0--2--3---------------3-|
E|--------------------------|-------------------------|
             x3

Tom:
E|---------|---------|---------|---------|
B|---------|---------|---------|---------|
G|---------|---------|---------|---------|
D|-7-7-7-7-|-5-5-5-5-|-4-4-4-4-|-3-3-3-3-|
A|-7-7-7-7-|-5-5-5-5-|-5-5-5-5-|-3-3-3-3-|
E|-5-5-5-5-|-3-3-3-3-|-2-2-2-2-|-1-1-1-1-|
exibições 102
Acordes para:
    Colaboração e revisão:
    • Francisco Adónis

    0 comentários

    mostrar mais comentários

    Conseguiu tocar?

    0 tocaram 0 ainda não

    Grave um vídeo tocando We're The Same e mande pra gente!

    00:00 / 00:00
    outros vídeos desta música
    repetir qualidade Automático
    Outros vídeos desta música
    00:00 / 00:00
    Automático
    OK