Cifra Club

What I Believe

Sum 41

Cifra: Principal (violão e guitarra)
Tom: B
By:Frédéric Hamel

  Guitar 1
e|---------------------------------------------------------------------------|
B|---------------------------------------------------------------------------|
G|-11-11-11-11-11-11-11-11---------------------------------------------------|
D|-11-11-11-11-11-11-11-11---------------------------------------------------|
A|--9--9--9--9--9--9--9--9---------------------------------------------------|
E|---------------------------------------------------------------------------|

  Guitar 2
e|---------------------------------------------------------------------------|
B|---------------------------------------------------------------------------|
G|-8-9-11-9-8--9-11-9-6-9----------------------------------------------------|
D|-x-x--x-x-x--x--x-x-x-x----------------------------------------------------|
A|-6-7--9-7-6--7--9-7-4-7----------------------------------------------------|
E|---------------------------------------------------------------------------|

  Guitar 1
e|---------------------------------------------------------------------------|
B|-0-4-0-7-5-4--0-4-0-7-5-4--0-4-0-7-5-4--5-4-2-5-4-5------------------------|
G|---------------------------------------------------------------------------|
D|---------------------------------------------------------------------------|
A|---------------------------------------------------------------------------|
E|---------------------------------------------------------------------------|

e|---------------------------------------------------------------------------|
B|-0-4-0-7-5-4--0-4-0-7-5-4--0-4-0-7-5-4--5-4-2-0----------------------------|
G|------------------------------------------------3-4------------------------|
D|---------------------------------------------------------------------------|
A|---------------------------------------------------------------------------|
E|---------------------------------------------------------------------------|

  Guitar 2
e|---------------------------------------------------------------------------|X2
B|---------------------------------------------------------------------------|
G|-4-4-4-4--------------------9-9-9-9----------------------------------------|
D|-4-4-4-4--6-6-6-6--4-4-4-4--9-9-9-9----------------------------------------|
A|-2-2-2-2--6-6-6-6--4-4-4-4--7-7-7-7----------------------------------------|
E|----------4-4-4-4--2-2-2-2-------------------------------------------------|

e|----------------------------------------------------------0----------------|
B|----------------------------------------------------------0----------------|
G|-4-4-4-4--------------------9-9-9-9---4-4-4-4------------------------------|
D|-4-4-4-4--6-6-6-6--4-4-4-4--9-9-9-9---4-4-4-4--6-6-6-6--4------------------|
A|-2-2-2-2--6-6-6-6--4-4-4-4--7-7-7-7---2-2-2-2--6-6-6-6--4------------------|
E|----------4-4-4-4--2-2-2-2---------------------4-4-4-4--2------------------|

e|---------------------------------------------------------------------------|
B|---------------------------------------------------------------------------|
G|-4-4-4-4-4-4-4-4-----------------------------------------------------------|
D|-4-4-4-4-4-4-4-4-----------------------------------------------------------|
A|-2-2-2-2-2-2-2-2-----------------------------------------------------------|
E|---------------------------------------------------------------------------|

e|---------------------------------------------------------------------------|
B|---------------------------------------------------------------------------|
G|---------------------------------------------------------------------------|
D|-4-4-4-4--2-2-2-2--4-4-4-4--6-6-6-6--4-4-4-4-4-4-4-4--6-6-6-6--4-4-4-4-----|
A|-4-4-4-4--2-2-2-2--4-4-4-4--6-6-6-6--4-4-4-4-4-4-4-4--6-6-6-6--4-4-4-4-----|
E|-2-2-2-2--0-0-0-0--2-2-2-2--4-4-4-4--2-2-2-2-2-2-2-2--4-4-4-4--2-2-2-2-----|

  Guitar 1
e|---------------------------------------------------------------------------|X2
B|---------------------------------------------------------------------------|
G|-8-9-8-6-------------------------------------------------------------------|
D|-x-x-x-x-------------------------------------------------------------------|
A|-6-7-6-4-------------------------------------------------------------------|
E|---------------------------------------------------------------------------|
 
  Guitar 2
e|---------------------------------------------------------------------------|
B|---------------------------------------------------------------------------|
G|-4--------4--------4-----------4-------------------------------------------|
D|-4--2--4--4--2--4--4--2--4--2--4-------------------------------------------|
A|-2--2--4--2--2--4--2--2--4--2--2-------------------------------------------|
E|----0--2-----0--2-----0--2--0----------------------------------------------|

  Guitar 1
e|---------------------------------------------------------------------------|
B|-0-4-0-7-5-4--0-4-0-7-5-4--0-4-0-7-5-4--5-4-2-5-4-5------------------------|
G|---------------------------------------------------------------------------|
D|---------------------------------------------------------------------------|
A|---------------------------------------------------------------------------|
E|---------------------------------------------------------------------------|

e|---------------------------------------------------------------------------|
B|-0-4-0-7-5-4--0-4-0-7-5-4--0-4-0-7-5-4--5-4-2-0----------------------------|
G|------------------------------------------------3-4------------------------|
D|---------------------------------------------------------------------------|
A|---------------------------------------------------------------------------|
E|---------------------------------------------------------------------------|
 
  Guitar 2
e|---------------------------------------------------------------------------|X2
B|---------------------------------------------------------------------------|
G|-4-4-4-4--------------------9-9-9-9----------------------------------------|
D|-4-4-4-4--6-6-6-6--4-4-4-4--9-9-9-9----------------------------------------|
A|-2-2-2-2--6-6-6-6--4-4-4-4--7-7-7-7----------------------------------------|
E|----------4-4-4-4--2-2-2-2-------------------------------------------------|

  Guitar 1
e|---------------------------------------------------------------------------|
B|---------------------------------------------------------------------------|
G|-4-4-4---------------------------------------------------------------------|
D|-4-4-4--4-4-4--2-2-2--6-6-6--4-4-4-----------------------------------------|
A|-2-2-2--4-4-4--2-2-2--6-6-6--4-4-4-----------------------------------------|
E|--------2-2-2--0-0-0--4-4-4--2-2-2-----------------------------------------|

  Guitar 2
e|---------------------------------------------------------------------------|
B|---------------------------------------------------------------------------|
G|--9-8-6-4------------------------------------------------------------------|
D|--x-x-x-x------------------------------------------------------------------|
A|--7-6-4-2------------------------------------------------------------------|
E|---------------------------------------------------------------------------|

e|---------------------------------------------------------------------------|
B|---------------------------------------------------------------------------|
G|-4-------------------------------------------------------------------------|
D|-4--x-x-x-x----------------------------------------------------------------|
A|-2--x-x-x-x----------------------------------------------------------------|
E|----x-x-x-x----------------------------------------------------------------|

Guitar 1
e|---------------------------------------------------------------------------|X2
B|---------------------------------------------------------------------------|
G|-8-9-8-6-------------------------------------------------------------------|
D|-x-x-x-x-------------------------------------------------------------------|
A|-6-7-6-4-------------------------------------------------------------------|
E|---------------------------------------------------------------------------|
 
  Guitar 2
e|---------------------------------------------------------------------------|
B|---------------------------------------------------------------------------|
G|-4--------4--------4-----------4-------------------------------------------|
D|-4--2--4--4--2--4--4--2--4--2--4-------------------------------------------|
A|-2--2--4--2--2--4--2--2--4--2--2-------------------------------------------|
E|----0--2-----0--2-----0--2--0----------------------------------------------|


  Guitar 1
e|---------------------------------------------------------------------------|
B|-0-4-0-7-5-4--0-4-0-7-5-4--0-4-0-7-5-4--5-4-2-5-4-5------------------------|
G|---------------------------------------------------------------------------|
D|---------------------------------------------------------------------------|
A|---------------------------------------------------------------------------|
E|---------------------------------------------------------------------------|

e|---------------------------------------------------------------------------|
B|-0-4-0-7-5-4--0-4-0-7-5-4--0-4-0-7-5-4--5-4-2-0----------------------------|
G|------------------------------------------------3-4------------------------|
D|---------------------------------------------------------------------------|
A|---------------------------------------------------------------------------|
E|---------------------------------------------------------------------------|

  Guitar 2
e|---------------------------------------------------------------------------|X2
B|---------------------------------------------------------------------------|
G|-4-4-4-4--------------------9-9-9-9----------------------------------------|
D|-4-4-4-4--6-6-6-6--4-4-4-4--9-9-9-9----------------------------------------|
A|-2-2-2-2--6-6-6-6--4-4-4-4--7-7-7-7----------------------------------------|
E|----------4-4-4-4--2-2-2-2-------------------------------------------------|

===============================================================================
exibições 3.975
Acordes para:
    Composição: Sum 41 Colaboração e revisão:
    • Pedro

    0 comentários

    mostrar mais comentários

    Conseguiu tocar?

    1 tocaram 0 ainda não

    Grave um vídeo tocando What I Believe e mande pra gente!

    00:00 / 00:00
    outros vídeos desta música
    repetir qualidade Automático
    Outros vídeos desta música
    00:00 / 00:00
    Automático
    OK