Cifra Club

Aprenda

Creep

Sungha Jung

Cifra: Principal (violão e guitarra)
tom: G
      
E|-----------3------------|--------3----------------|-----------7------------| 
B|--------3-------3-------|-----3-------------3-----|----------------7-------| 
G|-----4---------------4--|--5--------4----------4--|--------8------------8--| 
D|------------------------|----------------5--------|-----9------------------| 
A|------------------------|-------------------------|------------------------| 
E|--3---------------------|--3--------3-------------|--7---------------------| 


                                         
--------7----------------|-------------8------------| 
-----7-------------7-----|------------------8-------| 
--9--------8----------8--|--9--------------------9--| 
----------------9--------|---------10---------------| 
-------------------------|-----10-------------------| 
--7--------7-------------|--8-----------------------| 


                                            
---------8-----------------|-------------------------8--| 
------8--------------8-----|------------------8---------| 
--10--------9-----------9--|--8----------8--------------| 
-----------------10--------|---------10----------10-----| 
---------------------------|-----10---------------------| 
---8--------8--------------|--8-------------------------| 


                                          
-------------5--3s--2--3--|----------------3--------| 
--------------------------|-----3-------------------| 
--------------------------|-----------0----------0--| 
--------------------------|--------0----------0-----| 
--------------------------|-------------------------| 
--(8)---------------------|--3----------------------| 


                                         
--------3-----3g5--3-----2--|----------------2-------| 
--1--------0----------------|-----------0------------| 
-----0----------------0-----|--------2------------2--| 
----------------------------|-----1------------------| 
----------------------------|--2---------------------| 
--3-------------------------|------------------------| 


                                          
--------2-----3g5--3s--2--3--|-----0-------------------| 
--1--------0-----------------|----------------0--------| 
-----2-----------------------|-----------0----------0--| 
-----------------------------|--------2----------2-----| 
--2--------------------------|--3----------------------| 
-----------------------------|-------------------------| 


                                          
--------------3g5--3s--2--3--|---------------------3--| 
--1--------1-----------------|----------4-------------| 
--------0--------------------|---------------5--------| 
-----2-----------------------|------------------5-----| 
--3--------------------------|--3----3----------------| 
-----------------------------|------------------------| 


                                              
--L--------------5--3s--2--3--|------------------3--------| 
------------------------------|-----3--3--1g0-------------| 
-----(5)----------------------|--------0------------0--0--| 
----------(5)-----------------|--------0------------0-----| 
------------------------------|--------x------------x-----| 
------------------------------|--3-----x----3-------x-----| 


                                               
----------------3g5--3-------2--|----------------2----------| 
--1----------0------------------|-----------0---------------| 
-----0--(0)-------------(0)-----|--------2----------(2)-----| 
--------(0)-------------(0)-----|-----1--1----------(1)-----| 
---------x---------------x------|--2-----x-----------x---2--| 
--3------x---------------x------|--------x-----------x------| 


                                                  
----------------3g5--3s--2--3--|-----0--------------------------| 
--1-----(0)--0-----------------|-------------------0------------| 
-----2--(2)--------------------|--------(0)-----0-----(0)-------| 
--------(1)--------------------|--------(2)--2--------(2)-------| 
--2------x---------------x-----|--3------x-------------x---(0)--| 
---------x---------------x-----|---------x-------------x--------| 


                                              
----------------3g5--3s--2--3--|-----------------------3--| 
--1----------------------------|----------4-------(4)--4--| 
--------(0)--------------------|---------------5--(5)--5--| 
-----2--(2)--------------------|------------------(5)-----| 
--3------x---3-----------x-----|--3----3-----------x------| 
---------x---------------x-----|-------------------x------| 


                                             
--L--3--3--3--3--5g7--L--7--|------------------------------| 
--L--4--4--4--4-------------|--------(0)--------0--(0)-----| 
--L--5--5--5----------------|-----0--(0)-----0-----(0)-----| 
-----5-----5----------------|--------(0)-----------(0)-----| 
----------------------x-----|---------x-------------x------| 
----------------------x-----|--3------x---3---------x---0--| 


                                                 
-------------------5g7---L---7--|------------------7--(7)-----| 
--1-----(1)--0--0-------(0)-----|-----7------------7--(7)-----| 
-----0--(0)-------------(0)-----|-----8-----9g8-------(8)-----| 
--------(0)---------------------|-----------------------------| 
---------x---------------x------|--------x-------------x------| 
--3------x---3-----------x------|--7-----x----7--------x---7--| 

           E.                                   
--------7--7-7g8---7--7------8-|-------------------8--(8)-----| 
-----7--7--7-7g8---7--7--(7)-8-|----------8--------8--(8)-----| 
--9-------------------8--(8)---|----------9-----9-----(9)-----| 
-------------------------------|-----10--10-------------------| 
--------x-------------x--------|----------x------------x------| 
--7-----x-------------x--------|--8-------x--8---------x---8--| 


                                                  
---------8----------------------|---------------------------8--| 
------8--8-----8--10--8--10g11--|--L--8---(8)--------8---8--8--| 
--10--------9-------------------|-----8---(8)---8----8---8--8--| 
--------------------------------|--------(10)--10-------10-----| 
---------x------------x---------|----------x-------------x-----| 
---8-----x------------x---------|--8-------x-------------x-----| 


                                            
--L--8---8-----5--3s--2--3--|------------------3--------| 
--L------8------------------|-----3--3--1g0-------------| 
--L-----(8)-----------------|--------0------------0--0--| 
----------------------------|--------0------------0-----| 
---------x------------------|--------x------------x-----| 
---------x------------------|--3-----x----3-------x-----| 


                                               
----------------3g5--3-------2--|----------------2----------| 
--1----------0------------------|-----------0---------------| 
-----0--(0)-------------(0)-----|--------2----------(2)-----| 
--------(0)-------------(0)-----|-----1--1----------(1)-----| 
---------x---------------x------|--2-----x-----------x---2--| 
--3------x---------------x------|--------x-----------x------| 


                                                  
----------------3g5--3s--2--3--|-----0--------------------------| 
--1-----(0)--0-----------------|-------------------0------------| 
-----2--(2)--------------------|--------(0)-----0-----(0)-------| 
--------(1)--------------------|--------(2)--2--------(2)-------| 
--2------x---------------x-----|--3------x-------------x---(0)--| 
---------x---------------x-----|---------x-------------x--------| 


                                              
----------------3g5--3s--2--3--|-----------------------3--| 
--1----------------------------|----------4-------(4)--4--| 
--------(0)--------------------|---------------5--(5)--5--| 
-----2--(2)--------------------|------------------(5)-----| 
--3------x---3-----------x-----|--3----3-----------x------| 
---------x---------------x-----|-------------------x------| 


                                          
--L--3--3-----5--3s--2--3--|------------------3--------| 
--L--4--4------------------|-----3--3--1g0-------------| 
--L--5--5------------------|--------0------------0--0--| 
-----5---------------------|--------0------------0-----| 
-----------3---------x-----|--------x------------x-----| 
---------------------x-----|--3-----x----3-------x-----| 


                                                               
                                                 
----------------3g5--3-------2--|-----7----------------------| 
--1----------0------------------|-------------------0----------| 
-----0--(0)-------------(0)-----|----------------2-----(2)-----| 
--------(0)-------------(0)-----|-------------1--------(1)-----| 
---------x---------------x------|--2-------x------------x---2--| 
--3------x---------------x------|----------x------------x------| 


                                                    
----------------3g5--5g3s--2--3--|-----0--------------------------| 
--1-----(0)--0-------------------|-------------------0------------| 
-----2--(2)----------------------|--------(0)-----0-----(0)-------| 
--------(1)----------------------|--------(2)--2--------(2)-------| 
--2------x-----------------x-----|--3------x-------------x---(0)--| 
---------x-----------------x-----|---------x-------------x--------| 


                                              
----------------3--5p--3--5g6--|--L--3--3--3----3-------3--| 
--1----------------------------|--------4--4----4--(4)--4--| 
--------(0)--------------------|--------5--5----5--(5)--5--| 
-----2--(2)--------------------|-----------5-------(5)-----| 
--3------x---3---------x-------|--3-----------------x------| 
---------x-------------x-------|--------------------x------| 


                                                            
                                             
--L--3--3--3--3--5g7--L--7--|------------------------------| 
--L--4--4--4--4-------------|--------(0)--------0--(0)-----| 
--L--5--5--5--5-------------|-----0--(0)-----0-----(0)-----| 
-----5-----5----------------|--------(0)-----------(0)-----| 
----------------------x-----|---------x-------------x------| 
----------------------x-----|--3------x---3---------x---0--| 


                                                 
-------------------5g7---L---7--|------------------7--(7)-----| 
--1-----(1)--0--0-------(0)-----|-----7------------7--(7)-----| 
-----0--(0)-------------(0)-----|-----8-----9g8-------(8)-----| 
--------(0)---------------------|-----------------------------| 
---------x---------------x------|--------x-------------x------| 
--3------x---3-----------x------|--7-----x----7--------x---7--| 

             E.                                   
-----7---7---7-7g8---7--7------8-|-------------------8--(8)-----| 
-----7---7---7-7g8---7--7--(7)-8-|----------8--------8--(8)-----| 
--9-----(8)-------------8--(8)---|----------9-----9-----(9)-----| 
---------------------------------|-----10--10-------------------| 
---------x--------------x--------|----------x------------x------| 
--7------x--------------x--------|--8-------x--8---------x---8--| 


                                                    
---------------------------------|---------------------------10--| 
------8---------8--10--8--10g11--|--L--8---(8)--------8---8---8--| 
--10-----10--9-------------------|-----8---(8)---8----8---8---8--| 
---------10----------------------|--------(10)--10-------10------| 
----------x------------x---------|----------x-------------x------| 
---8------x------------x---------|--8-------x-------------x------| 


                                                           
                                               
---8----8--10---8----------------|--3-------3----3--3--3--| 
---8----8---8---8---8--(0)-------|--3----3--3----3--3--3--| 
---8----8---8---8---8--(0)--(0)--|--0----0--0----0--0--0--| 
--10-----------10--10--(0)--(0)--|--0----0--0-------0-----| 
---------------------------------|------------------------| 
---------------------------------|--3---------------------| 


                                                     
                                            
--5-------3----3--3-------|--2-------7----------5s-3-| 
--5-------3----3--3-------|--0--------------0--0-------| 
--0----0--0----0--0--(0)--|--2--------------2--2-------| 
--0----0--0-------0--(0)--|--1----1---------1--1-------| 
-------x------------------|--2----2------------2-------| 
-------x--3---------------|----------------------------| 


                                                                              
                                                              
--2----2--2----2--2-------|--3-------3----3--3--3--|--5-------3----3--3-------| 
--0----0--0----0--0-------|--3----3--3----3--3--3--|--5-------3----3--3-------| 
--2----2--2----2--2--(0)--|--0----0--0-------0-----|--0----0--0----0--0--(0)--| 
-------1-------1--1--(0)--|------------------------|--0----0-------------(0)--| 
--2-----------------------|--3---------------------|-------x--3---------------| 
--------------------------|------------------------|-------x------------------| 


                                                                     
                                                    
--3----------------------------------|--3-----3--(3)-----6--5--5s--7--| 
--4------------6----------6----------|--4-----4--(4)-(4)-4--4--4------| 
--5----------------------------------|--5-----5--(5)-(5)-3--3--3------| 
--5-----5----x-----------------------|--5-----5------(5)-5--5--5------| 
--3-----3--x-x-x------(x)-x------(x)-|--3--x--3-----------------------| 
-----------x---x--(x)-----x--(x)-----|-----x--------------------------| 


                                                                        
                                                          
--7------------7--7-----|--8-------7----7-------|--0-------0----0--0--0--| 
--0----0--0----0--0--0--|--0----0--0----0--0----|--0-------0----0--0--0--| 
--0----0--0----0--0--0--|--0----0--0----0--0----|--8----8--8----8--8--8--| 
--0----0--0-------0-----|--0----0--0-------0----|--9----9--9-------9--9--| 
------------------------|-----------------------|--9----9----------9-----| 
--3---------------------|--3--------------------|--7----7----------------| 


                                                          
                                               
--L--0-------0----0--0--0--|---8-----8---8-----8---8------| 
--L--0-------0----0--0--0--|--10----10--10----10--10---8--| 
--L--8-------8----8--8--8--|---9-----9---9-----9---9---9--| 
--L--9-------9-------9--9--|--10----10------------10--10--| 
-------------9-------9-----|------------------------------| 
--------(7)--7-------------|---8-----------------------8--| 


                                                     
--------------8--------------------|--------------------------8--| 
--L---8-------8-----(8)------------|-----8--(8)---8----8------8--| 
--L---9---9---9-----(9)---(9)--11--|--------(8)---8--------8-----| 
--L--10--10--10----(10)--(10)------|-------------10-------10-----| 
-----10--10------------------------|---------x-------------------| 
--L--------------------------------|--8------x-------------------| 


                                                             
--L--------5--3s--2--3--|----------------3--------|--------3-----3g5--3-----2--| 
--L---------------------|-----3-------------------|--1--------0----------------| 
------------------------|-----------0----------0--|-----0----------------0-----| 
------------------------|--------0----------0-----|----------------------------| 
------------------------|-------------------------|----------------------------| 
------------------------|--3----------------------|--3-------------------------| 


                                          
----------------2-------|--------2-----3g5--3s--2--3--| 
-----------0------------|--1--------0-----------------| 
--------2------------2--|-----2-----------------------| 
-----1------------------|-----------------------------| 
--2---------------------|--2--------------------------| 
------------------------|-----------------------------| 


                                          
-----0-------------------|--------------3g5--3s--2--3--| 
----------------0--------|--1--------1-----------------| 
-----------0----------0--|--------0--------------------| 
--------2----------2-----|-----2-----------------------| 
--3----------------------|--3--------------------------| 
-------------------------|-----------------------------| 


                                               
---------------------3--|--L-----------------3--5g7--L--7--| 
----------4-------------|----------------------------------| 
---------------5--------|-----(5)-------(5)----------------| 
------------------5-----|----------(5)---------------------| 
--3----3----------------|----------------------------x-----| 
------------------------|----------------------------x-----| 


                                                            
-------------------------|----------------7-----7--|---------------------------| 
-----------0-------------|--1----------0-----------|-----7------------7--------| 
--------0-------0-----0--|----------0--------------|-----8-----9g8----------8--| 
-----0-------------0-----|-------0-----------0-----|---------------------------| 
-------------------------|-------------------------|--------9------------9-----| 
--3----------------------|--3----------------------|--7------------------------| 

           E.                              
--------7----7g8---7-------8-|-----------------8-------| 
-----7----------------7----8-|------------8---------8--| 
--9--------8-------------8---|---------9---------------| 
-----------------------------|-----10------------------| 
-----------------------------|-------------------------| 
--7--------------------------|--8----------------------| 


                                                                
                                                  
---------8-----------------------|--------------------------8--| 
------8--------8--10p--8--10g11--|--L--8--------------------8--| 
--10--------9--------------------|------------------8-------8--| 
---------------------------------|------------10-------10--10--| 
---------------------------------|--------10---------------10--| 
---8--------8--------------------|--8-----------------------8--| 


                                                               
                                                            
--L--------------------------7--------|---------------------|| 
--L--------8----10g12--------7--------|---------------------|| 
--L-------------------------------------|--(0)----------------|| 
--L-------------------------------------|--(0)----------------|| 
--L-------------------------------------|--(2)----------------|| 
--L-------------------------------------|--(3)----------------||
Composição de Radiohead
Colaboração e revisão:
  • Washington Angélica
1.221 exibições
    • ½ Tom
    • A
    • Bb
    • B
    • C
    • Db
    • D
    • Eb
    • E
    • F
    • F#
    • G
    • Ab
  • Adicionar à lista

    0 comentários

    Ver todos os comentários

    Conseguiu tocar?

    0 Tocaram 0 Ainda não

    Grave um vídeo tocando Creep e nos envie!

    00:00 / 00:00
    outros vídeos desta música
    repetir qualidade Automático
    Outros vídeos desta música
    00:00 / 00:00
    Automático

    Cifra Club Pro

    Aproveite o Cifra Club com benefícios exclusivos e sem anúncios
    Cifra Club Pro
    Aproveite o Cifra Club com benefícios exclusivos e sem anúncios
    OK