Cifra Club

Im Not Only One

Sungha Jung

Cifra: Principal (violão e guitarra)
tom: F
Intro/Verse/Outro

       F           A          Dm        Bb
E|----------------------x---------x---------x--------------------------------|
B|----------------------x---------x---------x--------------------------------|
G|-------2-2----/6--6---x----7----x----7----x--------------------------------|
D|-------3-3----/7--7---x----7----x----8----x--------------------------------|   x3
A|----------------------x----5----x---------x--------------------------------|
E|----1------1--/5------x---------x----6----x--------------------------------|

       F          C              F
E|-------------------------x-------------------------------------------------|
B|-------------------------x-------------------------------------------------|
G|-------2-2---------0-0---x-----2-------------------------------------------|
D|-------3-3---------2-2---x-----3-------------------------------------------|   x1
A|---------------3---------x-------------------------------------------------|
E|---1---------------------x-----1-------------------------------------------|


Chorus

       F           A          Dm          Bb
E|----------------------x----------------------------------------------------|
B|----------------------x----------------------------------------------------|
G|-------2-2----/6--6---x----7----7------7----7------------------------------|
D|-------3-3----/7--7---x----7----7------8----8------------------------------|   x3
A|----------------------x----5--5---5----------------------------------------|
E|----1------1--/5------x----------------6--6---6----------------------------|

       F          C              F
E|---------------------------------------------------------------------------|
B|---------------------------------------------------------------------------|
G|-------2-2---------0-0--------2-------2------2----2------------------------|
D|-------3-3---------2-2--------3-------3------3----3------------------------|   x1
A|---------------3--------3--------------------------------------------------|
E|---1--------------------------1-----1---1----1--1---1----------------------|

Bridge

        Bb                      F
E|---------------------------------------------------------------------------|
B|---------------------------------------------------------------------------|
G|------7----7-----7----7------2----2-----2----2-----------------------------|
D|------8----8-----8----8------3----3-----3----3-----------------------------|
A|---------------------------------------------------------------------------|
E|------6--6---6---6--6---6----1--1---1---1--1---1---------------------------|

          A                      Dm      C
E|---------------------------------------------------------------------------|
B|---------------------------------------------------------------------------|
G|------6----6-----6----6------7-----7-----5----5----------------------------|
D|------7----7-----7----7------7-----7-----5----5----------------------------|
A|-----------------------------5--5----5---3--3---3--------------------------|
E|------5--5---5---5--5---5--------------------------------------------------| 
     
        Bb                      F
E|---------------------------------------------------------------------------|
B|---------------------------------------------------------------------------|
G|------7----7-----7----7------2----2-----2----2-----------------------------|
D|------8----8-----8----8------3----3-----3----3-----------------------------|
A|---------------------------------------------------------------------------|
E|------6--6---6---6--6---6----1--1---1---1--1---1---------------------------|

          A                     Bb
E|---------------------------------------------------------------------------|
B|---------------------------------------------------------------------------|
G|------6----6-----6----6------7-----7-----7----7----------------------------|
D|------7----7-----7----7------8-----8-----8----8----------------------------|
A|---------------------------------------------------------------------------|
E|------5--5---5---5--5---5----6---6---6---6--6---6--------------------------|
00:00 / 00:00
Outros vídeos desta música
Repetir
Outros vídeos desta música
Compositor não encontrado.
Colaboração e revisão:
  • karoline paula
437 exibições
    • ½ Tom
    • A
    • Bb
    • B
    • C
    • Db
    • D
    • Eb
    • E
    • F
    • F#
    • G
    • Ab
  • Adicionar à lista

    0 comentários

    Ver todos os comentários

    Conseguiu tocar?

    0 Tocaram 0 Ainda não

    Grave um vídeo tocando Im Not Only One e nos envie!

    Entre para oCifra Club PRO

    Tenha acesso a benefícios exclusivos no App e no Site

    • Chega de anúncios

    • Prioridade de compra em lançamentos

    • Mais recursos no app do Afinador

    • Atendimento Prioritário

    • Descontos nos produtos Cifra Club

    • Ajude a produzir mais conteúdo

    00:00 / 00:00

    Cifra Club Pro

    Aproveite o Cifra Club com benefícios exclusivos e sem anúncios
    Cifra Club Pro
    Aproveite o Cifra Club com benefícios exclusivos e sem anúncios
    OK