Cifra Club

Aprenda

I'm Yours

Sungha Jung

Cifra: Principal (violão e guitarra)
tom: Db (forma dos acordes no tom de A) Capotraste na 4ª casa
E|----------------3/5---|--3----------------------|-------------------3/5---|
B|----------------3/5---|--3----------------------|-------------------3/5---|
G|----------------------|-------x--0--------x--0--|--------x--0-------------|
D|----------------------|-------x--------0--x-----|-----0--x----------------|
G|----------------------|--0----------0-----------|--0-----------0----------|
D|----------------------|-------------------------|-------------------------|

--2-------2-----------2--|-----------2-------------|-------------------------|
--3-------3-----------3--|-----------3-------/5----|--0-------0-----------0--|
-------x--------2--x-----|-----2--x----------------|--0----x--0--------x--0--|
-------x-----------x-----|--------x----------------|-------x--------2--x-----|
-------------------------|-------------------------|-------------------------|
--0----------0-----------|--0-----------0----------|--2----------2-----------|

--------------------------|---------------------------|
-----------0--------------|--0g1-------------1--------|
--------x--0--------x-----|----0----x--0--------x--0--|
-----2--x--------2--x-----|----2----x-----------x-----|
-----------------------5--|---------------5-----------|
--2-----------2-----------|---------------------------|

    E  E  E  E  E  E  E  E     E  E  E  E  E  E  E  E
--------------------------|--------------------------|
-----1-----------0--------|--0-----------------------|
--------x--0--------x--0--|-----0--x--0--------x--0--|
--------x-----------x-----|--------x--------0--x-----|
--5-----------5-----------|--0-----------------------|
--------------------------|--------------0-----------|

--------------------------|--------------------------|
-----------------0--------|--0-----------------------|
--0--0--x--2--------x--0--|--------x-----------x-----|
--------x-----------x-----|-----4--x--4--------x--4--|
--0-----------0-----------|-----------------2--------|
--------------------------|--0-----------0-----------|

--------------------------|---------------------------|------------------------|
--------------------------|--0------------------------|------------------------|
--------x--------2--L-----|-----0--x--0---------x-----|-------x-----------x----|
--4--4--x--5--------x--0--|-----2--x--2-----4S--L--2--|-------x--2--------0----|
--------------------------|---------------------------|----------------0-------|
--0-----------0-----------|--2-----------2------------|--2----------2----------|

------------------------|---------------------------|--------------------------|
----------1----0-----0--|------------------0--------|--0-----------------------|
-------x--0----0--x--0--|-----2p--0--------0--x--0--|-----0--x--0--------x--0--|
-------x----------x-----|---------x--0--------x-----|--------x--------0--x-----|
--5-------5-------------|--5------------5-----------|--0-----------------------|
------------------------|---------------------------|--------------0-----------|

--------------------------|--------------------------|
-----------------0--------|--0-----------------------|
--0--0--x--2--------x--0--|--------x-----------x-----|
--------x-----------x-----|-----4--x--4--------x--4--|
--0-----------0-----------|-----------------2--------|
--------------------------|--0-----------0-----------|

--------------------------|---------------------------|------------------------|
--------------------------|--0------------------------|------------------------|
--------x--------2--L-----|-----0--x--0---------x-----|-------x-----------x----|
--4--4--x--5--------x--0--|-----2--x--2-----4S--L--2--|-------x--2--------0----|
--------------------------|---------------------------|----------------0-------|
--0-----------0-----------|--2-----------2------------|--2----------2----------|

---------------------------|--------------------------|
---------------------------|--0g1----------0----L-----|
-------x-------------x-----|----0----x--0-------x--0--|
-------x--2----------x-----|----0----x----------x-----|
--5----------(5)--5-----5--|---------------5----------|
---------------------------|--------------------------|

----------------------------|----------------------------|
--0----L--------------------|---------------0----L-------|
-------x-------0----L-------|-------x-------0----x-------|
-------x--(0)-------x--(0)--|--0----L--(0)-------x--(0)--|
--0------------0------------|--0------------0------------|
----------------------------|----------------------------|

----------------------------|----------------------------|
----------------------------|----------------------------|
--2----L------------x-------|--------x-----2s----3s-2----|
-------x-------4----L-------|--0--L--x--0--0-----x--L-0--|
----------(0)----------(2)--|-----2----------------------|
--0------------0------------|--0--L--------0-------------|

-----------------------------|------------------------|
-----------------------------|------------------------|
--0--L--x-----0-----x--------|-------x-----0----L-----|
-----2--x--2-------(2)-------|--2----L--2-------x--0--|
------------------------(0)--|------------------------|
--2--L--------2--------------|--2----------2----------|

--------------------------|--------------------------|-------------------------|
-------------0g1----------|--0-----------------------|-------------------------|
-------x-------0----x--0--|--0----2p--0--L-----x--0--|--L----x--0--------x-----|
-------x-------0----x-----|--------------x--0--x-----|-------x--------0--x--0--|
--5-------5---------------|--5-----------------------|--0----------------------|
--------------------------|--------------------------|-------------0-----------|

--------------------------|--------------------------|
--------------------------|-----3S--L--5--3-------3--|
--------x--0-----2--0-----|---------x----------x-----|
-----0--x--------------4--|---------x----------x-----|
--0-----------0-----------|--------------------------|
--------------------------|--0------------0----------|

--------------------------|---------------------------|
-----------3--------------|---------------------------|
--------x-----------x-----|-------x-------------x--0--|
-----4--x--------0--x--2--|-------x--2-----(2)--x-----|
--------------------------|---------------------------|
--0-----------0-----------|--2----------2-------------|

----------------------------|---------------------------|
----------------------------|---------------------------|
--------x--0--------x-------|---------x-----------x-----|
-----2--x--------0--x--(0)--|--0g2----x--2-----2--x--2--|
----------------------------|----5----------5-----------|
--2-----------2-------------|---------------------------|

--------------------------|--------------------------|
-----------------0--L-----|--0--L--------------------|
--------x--------0--x--0--|--0--0--x--0--------x--0--|
-----2--x--2--------x-----|--------x--------0--x-----|
--5-----------5-----------|--0-----------------------|
--------------------------|--------------0-----------|

---------------------------|---------------------------|
------------------0-----3--|--L----------3p--0--3p--0--|
--0--0--x--0h--2-----x-----|-------x-------------------|
--------x------------x-----|-------x--4---------x------|
--0------------0-----------|---------------------------|
---------------------------|--0----------0-------------|

-------0-----------------|-------------------------|---------------------------|
--3----------0--------0--|-------------0--3-----1--|-----0-----0---------------|
----------------2--L-----|-------x-----------x-----|--------2-----2p--0--x-----|
-------------------x-----|-------x--2--------x-----|---------------------x-----|
-------------------------|-------------------------|------------------------5--|
--0-------0--------------|--2----------2-----------|--2------------------------|

------------------------------|------------------------|
--0g1-------------0-----0-----|--0---------------------|
----0----x--0-----0--x-----2--|--0----x----------x-----|
----0----x-----------x--------|-------x-----0----x--0--|
---------------5--------------|--5-------5-------------|
------------------------------|------------------------|

--------------------------|---------------------------|
--------------------------|------------------0-----3--|
--0--0--x--0--------x--0--|-----0--x--0h--2-----x-----|
--------x--------0--x-----|--------x------------x-----|
--0-----------------------|--0------------0-----------|
--------------0-----------|---------------------------|

---------------------------|-------0-----------------|-------------------------|
--L----------3p--0--3p--0--|--3----------0--------0--|-------------0--3--------|
-------x-------------------|----------------2--L-----|-------x-----------x--0--|
-------x--4---------x------|-------------------x-----|-------x--2--------x-----|
---------------------------|-------------------------|-------------------------|
--0----------0-------------|--0-------0--------------|--2----------2-----------|

---------------------------|---------------------------|
-----0-----0---------------|--0g1-------------0--------|
--------2-----2p--0--x-----|----0----x--0--------x--2--|
---------------------x-----|----0----x-----------x-----|
------------------------5--|---------------5-----------|
--2------------------------|---------------------------|

------------------------|----------------------|------------------------|
------------------------|-----0----------------|----------------0-------|
--0----x----------x-----|--------2--------L----|--L--2\------x--0----0--|
-------x-----0----x-----|--5-----5--------L----|--L--5-------x----------|
--5-------5----------6--|----------------------|-----6------------------|
------------------------|----------------------|------------------------|

----------------------------|----------------------------|
--0----L--------------------|---------------0----L-------|
-------x-------0----L-------|-------x-------0----x-------|
-------x--(0)-------x--(0)--|--0----L--(0)-------x--(0)--|
--0------------0------------|--0------------0------------|
----------------------------|----------------------------|

----------------------------|----------------------------|
----------------------------|----------------------------|
--2----L------------x-------|--------x-----2s----3s-2----|
-------x-------4----L-------|--0--L--x--0--0-----x--L-0--|
----------(0)----------(2)--|-----2----------------------|
--0------------0------------|--0--L--------0-------------|

-----------------------------|------------------------|
-----------------------------|------------------------|
--0--L--x-----0-----x--------|-------x-----0----L-----|
-----2--x--2-------(2)-------|--2----L--2-------x--0--|
------------------------(0)--|------------------------|
--2--L--------2--------------|--2----------2----------|

--------------------------|--------------------------|
-------------0g1----------|--0-----------------------|
-------x-------0----x--0--|--0----2p--0-----2--L--0--|
-------x-------0----x-----|--------------x-----x-----|
--5-------5---------------|--5-----------------------|
--------------------------|--------------------------|

----------------------------|----------------------------|
--0----L--------------------|---------------0----L-------|
-------x-------0----L-------|-------x-------0----x-------|
-------x--(0)-------x--(0)--|--0----L--(0)-------x--(0)--|
--0------------0------------|--0------------0------------|
----------------------------|----------------------------|

----------------------------|----------------------------|
----------------------------|----------------------------|
--2----L------------x-------|--------x-----2s----3s-2----|
-------x-------4----L-------|--0--L--x--0--0-----x--L-0--|
----------(0)----------(2)--|-----2----------------------|
--0------------0------------|--0--L--------0-------------|

-----------------------------|------------------------|
-----------------------------|------------------------|
--0--L--x-----0-----x--------|-------x-----0----L-----|
-----2--x--2-------(2)-------|--2----L--2-------x--0--|
------------------------(0)--|------------------------|
--2--L--------2--------------|--2----------2----------|

--------------------------|--------------------------|-------------------------|
-------------0g1----------|--0-----------------------|----------------0--------|
-------x-------0----x--0--|--0----2p--0--------x--0--|-------2--0--2-----x--0--|
-------x-------0----x-----|--------------x--0--x-----|-------x-----------x-----|
--5-------5---------------|--5-----------------------|--0----------0-----------|
--------------------------|--------------------------|-------------------------|

--------0------------------|----------------------------|
-----------0------------0--|--------3--1p--0------------|
-----0--------2p--0--2-----|------------------2p--0-----|
---------------------------|-----2-------------------2--|
--0------------------------|----------------------------|
---------------------------|--2-------------------------|

---------------------------|-------------------------|
--------0--3-----1p--0-----|-------------------------|
--------0---------------2--|-----0-------x-----------|
-----2---------------------|--------2----x--2-----2--|
---------------------------|--5----------------5-----|
--2-----------2------------|-------------------------|

--------------------------|---------------------------|
-----------------------0--|--L------------------------|
--x-----------x--------0--|--L--2--x--------2--x--2\--|
--x--2-----2--x--0-----5--|--L-----x--5--------x--5---|
--------5-----------6-----|--------------6--------6---|
--------------------------|---------------------------|

---------------------------|-------------------------|
-------0--3p--1--0---------|----------------/5----3--|
--L-----------------2p--0--|-------x--0--------------|
--L------------------------|-------x-----------------|
--L------------------------|--0----------0-----------|
---------------------------|-------------------------|

-----------------------------|---------------------------|
-----1p--0------------0h--1--|--0----3--1p--0------------|
------------2--0h--2---------|-------x---------2p--0-----|
-----------------------------|-------x-------------x--0--|
-----------------------------|---------------------------|
--0--------------------------|--2------------------------|

---------------------------|-------------------------|
-------3-----1p--0---------|-------------------------|
--0----0------------2p--0--|-------x-----------x-----|
--2------------------------|--2----x--2-----2--x--2--|
---------------------------|--5----------5-----------|
--2-------2----------------|-------------------------|

--------------------------|--------------------------|---------------3h--7-----|
--------------------------|--0--L--------------0-----|-------------------------|
--------x-----------x-----|--0--L--2--x--------2--x--|--2\--------x---------0--|
-----2--x--2-----0--x-----|--5--L-----x--5--------x--|--5---------x------------|
--5-----------5--------6--|-----------------6--------|--6----------------------|
--------------------------|--------------------------|-------------------------|

--7--3-----3-------------3--|--3--3-----5-----7----------|
-------------------0--------|----------------------------|
--------x----------0--x-----|--------x-----------x--(7)--|
--------x-------------x-----|--------x-----------x-------|
--0--L----------------------|--0--L--------0-------------|
--------------(0)-----------|----------------------------|

--7-----------------------|---------------------------|
-----7-----7-----------7--|--7--7-----8-----10--------|
-----7--x--7-----7--x-----|--------x------------x--7--|
--------x-----------x-----|--------x------------x-----|
--------------------------|---------------------------|
--0-----------0-----------|--0-----------0------------|

--7-----------------------|-----------------------|----------7g8----7-----7h--|
-----8-----8-----7--------|-----------------------|------------5----5---------|
-----7--x--7--------x--9--|-------x--9-------7----|--5----x------------x------|
--------x-----------x-----|-------x---------------|-------x------------x------|
--9-----------9-----------|--9----------9---------|--5---------5----L---------|
--------------------------|-----------------------|---------------------------|

--L--5----------7-----3--|--7p--3-----3-------------3--|
--------8-------0--------|--------------------0--------|
-------------x-----x-----|---------x----------0--x-----|
-------------x-----x-----|---------x-------------x-----|
--5----------------------|--0---L----------------------|
-------------------------|---------------(0)-----------|

--3--3-----5-----7----------|--7-----------------------|
----------------------------|-----7-----7-----------7--|
--------x-----------x--(7)--|-----7--x--7-----7--x-----|
--------x-----------x-------|--------x-----------x-----|
--0--L--------0-------------|--------------------------|
----------------------------|--0-----------0-----------|

---------------------------|--7-----------------------|-----------------------|
--7--7-----8-----10--------|-----8-----8-----7--------|-----------------------|
--------x------------x--7--|-----7--x--7--------x--9--|-------x--9-------7----|
--------x------------x-----|--------x-----------x-----|-------x---------------|
---------------------------|--9-----------9-----------|--9----------9---------|
--0-----------0------------|--------------------------|-----------------------|

-------------------------|--7g8----------7----------|--7--------3--------|
----------5--------------|----5---------------------|--0--------0--------|
--5----x--------5--x-----|----5----x--5-------x-----|--0--------0--------|
-------x-----------x-----|---------x----------x-----|--------------------|
--5----------5--------5--|---------------5-------0--|--------------------|
-------------------------|--------------------------|--------------------|

-----------/7--------|---------------------|---------------------------|
--3---------0--------|--10--------7--------|-----------10s----11s--10--|
--0---------0--------|---7-----------------|--7---------7--------------|
---------------------|---------------------|---------------------------|
---------------------|---------------------|---------------------------|
---------------------|---0-----------------|------------0--------------|

---------------------|--------------------|-----------/8--------|
--8---------8--------|-----------8--------|------------5--------|
--7------------------|--9-----------------|--5---------5--------|
---------------------|--------------------|--5------------------|
-------9-------------|--------------------|--5------------------|
---------------------|--------------------|---------------------|

--7p------5-------5-----|--7--------3--------|-----------/7--------|
--5----------8-------8--|--0--------0--------|--3---------0--------|
--5---------------------|--0--------0--------|--0---------0--------|
------------------------|--------------------|---------------------|
------------------------|--------------------|---------------------|
------------------------|--------------------|---------------------|

---------------------|---------------------------|---------------------|
--10--------7--------|-----------10s----11s--10--|--8---------8--------|
---7-----------------|--7---------7--------------|--7------------------|
---------------------|---------------------------|---------------------|
---------------------|---------------------------|-------9-------------|
---0-----------------|------------0--------------|---------------------|

--------------------|-----------/8--------|--7p------5-------5-----|
-----------8--------|------------5--------|--5----------8-------8--|
--9-----------------|--5---------5--------|--5---------------------|
--------------------|--5------------------|------------------------|
--------------------|--5------------------|------------------------|
--------------------|---------------------|------------------------|

-------------------------|---------------------------|
-------------------------|------------------0-----3--|
-------x--0--------x--0--|--------x--0h--2-----x-----|
-------x--------0--x-----|-----0--x------------x-----|
--0----------------------|--0------------0-----------|
-------------0-----------|---------------------------|

---------------------------|-------0-----------------|-------------------------|
--L----------3p--0--3p--0--|--3----------0--------0--|-------------0--3-----1--|
-------x-------------------|----------------2--L-----|-------x-----------x-----|
-------x--4---------x------|-------------------x-----|-------x--2--------x-----|
---------------------------|-------------------------|-------------------------|
--0----------0-------------|--0-------0--------------|--2----------2-----------|

---------------------------|-------------0----------|
-----0-----0---------------|-------------3----3-----|
--------2-----2p--0--x--0--|--L----x-----0----------|
---------------------x-----|-------x----------------|
---------------------------|--5-------5----------5--|
--2------------------------|------------------------|

----------------------------|------------------------|-------------------------|
--1p--0------------0--------|--0----------0----------|--0-------------3--------|
---------2p--0--x--0--x--0--|-------x--0-------x--0--|-------x--0-----0--x--0--|
----------------x-----x-----|-------x----------x-----|-------x-----------x-----|
----------------------------|--0----------0----------|--0----------0-----------|
----------------------------|------------------------|-------------------------|

-------0-----------------|-------------------------|
--3-------3--1--0--1-----|----------------3--------|
----------------------2--|--L----x--2--------x-----|
-------------------------|-------x-----------x--0--|
--0----------------------|-------------------------|
-------------------------|-------------0-----------|

-----0----------------------|----------------------------|
--3--------1p--L--0---------|----------------------------|
--------x------------2p--0--|--x--------0--x-----x-------|
--------x-------------------|--x--2--------x--0--x--(0)--|
----------------------------|----------------------------|
--2------------2------------|--------2-------------------|

---------------------------|--------------------------|--------------------|
---------------------------|--------------------------|--0-----------------|
---------x-----------x-----|--------x--------0--x-----|--0----2------------|
--0g2----x--2-----2--x--2--|-----2--x--2-----0--x-----|--0-----------------|
----5----------5-----------|--5-----------5--------6--|--------------------|
---------------------------|--------------------------|--------------------|

----------------------|----------------------------|-------------------------|
----------------3--3--|--1p--0-----0---------------|-------------------------|
--L-------------------|---------2-----2p--0-----0--|-------x--0--------x--0--|
----------------------|----------------------0-----|--0----x--------0--x-----|
----------------------|----------------------------|--0----------0-----------|
----------------------|----------------------------|-------------------------|

--------------------------|-------------------------|--------------------------|
--------------------------|-------------------------|--------------------------|
--------x--0--------x-----|-------x-----------x-----|--------x-----------x-----|
-----0--x--------0--x--4--|-------x--4--------x--4--|--------x--4-----0--x--2--|
--0-----------0-----------|----------------2--------|-----2--------------------|
--------------------------|--0----------0-----------|--0-----------0-----------|

-------------------------|----------------------------|
-------------------------|----------------------------|
-------x-----------x-----|--------x-----------x-------|
-------x--2--------x--2--|--------x--2-----0--x--(0)--|
----------------0--------|-----0----------------------|
--2----------2-----------|--2-----------2-------------|

---------------------------|--------------------------|
---------------------------|--------------------------|
---------x-----------x-----|--------x-----------x-----|
--0g2----x--2-----2--x--2--|-----2--x--2-----0--x--0--|
----5----------5-----------|--5-----------5-----------|
---------------------------|--------------------------|

-------------------------|--------------------------|-------------------------|
-------------------------|--------------------------|-------------------------|
--0----x--0--------x--0--|--------x--0--------x-----|-------x-----------x-----|
-------x--------0--x-----|-----0--x--------0--x--4--|-------x--4--------x--4--|
--0----------0-----------|--0-----------0-----------|----------------2--------|
-------------------------|--------------------------|--0----------0-----------|

--------------------------|-------------------------|
--------------------------|-------------------------|
--------x-----------x-----|-------x-----------x-----|
--------x--4-----0--x--2--|-------x--2--------x--2--|
-----2--------------------|----------------0--------|
--0-----------0-----------|--2----------2-----------|

----------------------------|---------------------||
----------------------------|---------------------||
--------x-----------x-------|---------------------||
--------x--2-----0--x--(0)--|--0g2----------------||
-----0----------------------|----5----------------||
--2-----------2-------------|---------------------||

Colaboração e revisão:
  • Wallace Vieira
  • maicon
43.407 exibições
    • ½ Tom
    • A
    • Bb
    • B
    • C
    • Db
    • D
    • Eb
    • E
    • F
    • F#
    • G
    • Ab
  • Adicionar à lista

    0 comentários

    Ver todos os comentários

    Conseguiu tocar?

    5 Tocaram 3 Ainda não

    Grave um vídeo tocando I'm Yours e nos envie!

    00:00 / 00:00
    outros vídeos desta música
    repetir qualidade Automático
    Outros vídeos desta música
    00:00 / 00:00
    Automático

    Cifra Club Pro

    Aproveite o Cifra Club com benefícios exclusivos e sem anúncios
    Cifra Club Pro
    Aproveite o Cifra Club com benefícios exclusivos e sem anúncios
    OK