Cifra Club

Aprenda

Right Here Waiting

Sungha Jung

Cifra: Principal (violão e guitarra)
tom: C
Intro:
   C                  G                   Am
E|-------3-3-1-0-------|----------0-0^1-0------|-----------0---------------|
B|-----1----------3----|-------3-3-------------|----1-1--3---3-1--0--------|
G|---------------------|-----0---------------- |---------------------0^2-0-|
D|---2-----------------|---0-------------------|---2-----------------------|
A|-3-------------------|-2---------------------|-0-------------------------|
E|---------------------|-----------------------|---------------------------|

   C                  G                   Am
E|-------3-3-1-0-------|----------0-0^1-0------|-----------0-1-0-----------|
B|-----1----------3----|-------3-3-------------|----1-1--3--------3--1^0-1-|
G|---------------------|-----0---------------- |---------------------------|
D|---2-----------------|---0-------------------|---2-----------------------|
A|-3-------------------|-2---------------------|-0-------------------------|
E|---------------------|-----------------------|---------------------------|

C       Am              F
Oceans apart day after day
        G       C
And I slowly go insane
C       Am              F
I hear your voice on the line
        G            Am
But it doesn't stop the pain

Am             F
If I see you next to never
Am               F              C
How can we say forever

C               G
Wherever you go
G              Am
Whatever you do
Am         F                 C
I will be right here waiting for you
C               G
Whatever it takes
G               Am
Or how my heart breaks
Am         F                 C
I will be right here waiting for you

C       Am              F
I took for granted, all the times
        G               C
That I though would last somehow
C        Am                F
I hear the laughter, I taste the tears
G                       Am
But I can't get near you now

Am              F
Oh, can't you see it baby
Am              F       C
You've got me goin' crazy

C               G
Wherever you go
G              Am
Whatever you do
Am         F                 C
I will be right here waiting for you
C               G
Whatever it takes
G               Am
Or how my heart breaks
Am         F                 C
I will be right here waiting for you

Dm7     C          F
I wonder how we can survive
F
This romance
Dm7     C              F
But in the end if I'm with you
F           G
I'll take the chance

Repeat INTRO

Am              F
Oh, can't you see it baby
Am              F       C
You've got me goin' crazy

C               G
Wherever you go
G              Am
Whatever you do
Am         F                 C
I will be right here waiting for you
C               G
Whatever it takes
G               Am
Or how my heart breaks
Am         F                 C
I will be right here waiting for you
Colaboração e revisão:
  • Vinicius
6.008 exibições
    • ½ Tom
    • A
    • Bb
    • B
    • C
    • Db
    • D
    • Eb
    • E
    • F
    • F#
    • G
    • Ab
  • Adicionar à lista

    0 comentários

    Ver todos os comentários

    Conseguiu tocar?

    2 Tocaram 0 Ainda não

    Grave um vídeo tocando Right Here Waiting e nos envie!

    00:00 / 00:00
    outros vídeos desta música
    repetir qualidade Automático
    Outros vídeos desta música
    00:00 / 00:00
    Automático

    Cifra Club Pro

    Aproveite o Cifra Club com benefícios exclusivos e sem anúncios
    Cifra Club Pro
    Aproveite o Cifra Club com benefícios exclusivos e sem anúncios
    OK