Cifra Club

One Minute Science

Sunna

Cifra: Principal (violão e guitarra)
Selo Cifra Club: esta cifra foi revisada para atender aos critérios oficiais da nossa Equipe de Qualidade.
tom: C
Intro/Outro:

E|-------------------------|
B|-------------------------|
G|-------------------------|
D|--3\\----0-3-0--0-3-0-5\\--|
A|--3\\----0-3-0--0-3-0-5\\--|
E|--3\\----0-3-0--0-3-0-5\\--|

Chorus:

E|---------------------------|
B|---------------------------|
G|---------------------------|
D|--0-0-3h5--0-0-0-0--3p0h3--|
A|--0-0------0-0-0-0--3p0h3--|
E|--0-0------0-0-0-0--3p0h3--|
   ...      .......

Pre-Outro:

E|----------------------|
B|----------------------|
G|----------------------|
D|--0-3-0-3-0-3--6-6-6--|
A|--0-3-0-3-0-3--6-6-6--|
E|--0-3-0-3-0-3--6-6-6--|
   ..................

************************************************************************
SUNNA
O.D


Standard Tuning

Verse:

E|--------3----------------|
B|--------3----------------|
G|-----4--4----------------|
D|----5---5-------------5--|
A|---5--------------5------|
E|--3----------3-3----3----|

Chorus:

E|------------------------------------|
B|------------------------------------|
G|------------------------------------|
D|--7-7----7-10-10-x----3-3--5-5-5-5--|
A|--7-7----7-10-10-x----3-3--5-5-5-5--|
E|--5-5----5--8--8-x----1-1--3-3-3-3--|

E|------------------------------------|
B|------------------------------------|
G|------------------------------------|
D|--7-7----7-10-10-x----3-3--6-6-5-5--|
A|--7-7----7-10-10-x----3-3--6-6-5-5--|
E|--5-5----5--8--8-x----1-1--4-4-3-3--|

Bridge:

E|-----------------------------|
B|-----------------------------|
G|-----------------------------|
D|--7-7----7-10-10-x----3~~~~--|
A|--7-7----7-10-10-x----3~~~~--|
E|--5-5----5--8--8-x----1~~~~--|

************************************************************************
SUNNA
I'M NOT TRADING


Standard Tuning

Intro/Chorus:

E|--------------------|
B|--------------------|
G|-------4-4-5-5\\-----|
D|--2----4-4-5-5\\--0--|
A|--2----2-2-3-3\\--2--|
E|--------------------|

Solo: 

If Anyone Has Any Idea About
The Solo Email me And I'll Credit You.
************************************************************************
SUNNA
I E SS


Standard Tuning

Verse Chords:

E|--2---------0--|
B|--0----0----1--|
G|--2----1----0--|
D|--1----2----2--|
A|--2----2----3--|
E|-------0-------|

Chorus Chords:

E|--2---------0----2--|
B|--0----0----1----3--|
G|--2----1----0----2--|
D|--1----2----2----0--|
A|--2----2----3-------|
E|-------0------------|

Bridge:

E|--3----0----0--|
B|--3----2----1--|
G|--0----2----0--|
D|--0----2----2--|
A|--x----0----3--|
E|--3------------| (x2)

E|--3----0-------|
B|--3----2----0--|
G|--0----2----0--|
D|--0----2----2--|
A|--x----0----2--|
E|--3---------0--| (x1)

End On:

E|----2----|
B|----3----|
G|----2----|
D|----0----|
A|----0----|
E|---------|

************************************************************************

SUNNA
7%


Standard Tuning

Intro:

E|--------|
B|-----0--|
G|--------|
D|--0-----|
A|--------|
E|--------|

Verse 1 Chords:

E|--0--|--0--|--1--|
B|--1--|--1--|--1--|
G|--2--|--0--|--2--|
D|--2--|--2--|--3--|
A|--0--|--3--|--3--|
E|-----|-----|--1--| (x2)

E|--0--|--0--|-----|--0--|--0--|--1--|
B|--1--|--1--|--0--|--1--|--1--|--1--|
G|--2--|--0--|--1--|--2--|--0--|--2--|
D|--2--|--2--|--2--|--2--|--2--|--3--|
A|--0--|--3--|--2--|--0--|--3--|--3--|
E|-----|-----|--0--|-----|-----|--1--| (x1)

Chorus Chords:

E|--1--|--0--|-----|--0--|
B|--1--|--1--|--0--|--1--|
G|--2--|--0--|--1--|--2--|
D|--3--|--2--|--2--|--2--|
A|--3--|--3--|--2--|--0--|
E|--1--|-----|--0--|-----| (x4)

Verse 2 Chords:

E|--0--|--0--|--1----|
B|--1--|--1--|--1----|
G|--2--|--0--|--2----|
D|--2--|--2--|--3----|
A|--0--|--3--|--3----|
E|-----|-----|--1----| (x2)

Bridge:

E|--1--|--5--|--4--|--3--|--7--|--5--|--3--|
B|--1--|--5--|--4--|--3--|--7--|--5--|--3--|
G|--2--|--6--|--5--|--4--|--8--|--6--|--4--|
D|--3--|--7--|--6--|--5--|--9--|--7--|--5--|
A|--3--|--7--|--6--|--5--|--9--|--7--|--5--|
E|--1--|--5--|--4--|--3--|--7--|--5--|--3--|

************************************************************************
SUNNA
7% (LIVE)


Standard Tuning

I just got in from seeing Sunna live
In Liverpool in the UK, and from carefully
Watching John Harris i have been able to
Tab out all the variations for the 'Live'
Version of '7%'. As nearly everybody knows,
Sunna like to spice up their normal songs
When they do them live to give them more kick.
It works.

Verse:

\"I don't remember being dead...\"

E|--------0--0--0--0--0--0--000--0------|
B|-----0--1--1--1--1--1--1--111----0----|
G|--------2--2--0--0--2--2--222------0--|
D|--0-----2--2--2--2--3--3--333---------|
A|--------0--0--3--3--0--0--000---------|
E|--------------------------------------|

E|--0--0--0--0--0--0--000--0------|
B|--1--1--1--1--1--1--111----0----|
G|--2--2--0--0--2--2--222------0--|
D|--2--2--2--2--3--3--333---------|
A|--0--0--3--3--0--0--000---------|
E|--------------------------------|

Chorus:

\"If you're feelin' trust...\"

E|--0--0--0--0--------0--0--|
B|--1--1--1--1--0--0--1--1--|
G|--2--2--0--0--1--1--2--2--|
D|--3--3--2--2--2--2--2--2--|
A|--0--0--3--3--2--2--0--0--|
E|--------------0--0--------|

E|--1--1--1--1--0--0-------------0--|
B|--3--3--1--1--1--1--0--0-------1--|
G|--2--2--2--2--0--0--1--1-------2--|
D|--0--0--3--3--2--2--2--2-------2--|
A|--0--0--------3--3--2--2-------0--|
E|--------------------0--0----------|

Interlude:

\"Know, your brain is better than...\"

E|--1-1-1-1----/5-5-4-4-3-3----7--7--xx--5-5--3-3--|
B|--1-1-1-1----/5-5-4-4-3-3----7--7--xx--5-5--3-3--|
G|--2-2-2-2----/6-6-5-5-4-4----8--8--xx--6-6--4-4--|
D|--3-3-3-3----/7-7-6-6-5-5----9--9--xx--7-7--5-5--|
A|--3-3-3-3----/7-7-6-6-5-5----9--9--xx--7-7--5-5--|
E|--1-1-1-1----/5-5-4-4-3-3----7--7--xx--5-5--3-3--|


************************************************************************
If anyone has any Sunna tabs they think are close
But not right, mail 'em to me and i'll try and sort
Them out. Credit must go to 'Nick Olorenshaw'
For helping me out with the last chord on 'I E SS'.
I read your tab and it fuckin' rules.
Outros vídeos desta música
      • ½ Tom
      • A
      • Bb
      • B
      • C
      • Db
      • D
      • Eb
      • E
      • F
      • F#
      • G
      • Ab
    • Adicionar à lista

    Afinação da cifra

    Afinador online

      0 comentários

      Ver todos os comentários

      Entre para o Cifra Club PRO

      Tenha acesso a benefícios exclusivos no App e no Site

      • Chega de anúncios

      • Badges exclusivas

      • Mais recursos no app do Afinador

      • Atendimento Prioritário

      • Aumente seu limite de lista

      • Ajude a produzir mais conteúdo

      Cifra Club Pro

      Aproveite o Cifra Club com benefícios exclusivos e sem anúncios
      Cifra Club Pro
      Aproveite o Cifra Club com benefícios exclusivos e sem anúncios
      OK