Cifra Club

Aos Poucos

Supercombo

Cifra: Principal (violão e guitarra)
Selo Cifra Club: esta cifra foi revisada para atender aos critérios oficiais da nossa Equipe de Qualidade.
tom: G
[Tab - Riff 1]

E|--------------------------------------------------|
B|--------------------------------------------------|
G|--------------------------------------------------|
D|---------2----------------------------------------|
A|-----------------------------2--------------------|
E|--0--0-------3--3-----5------------5--------0--0--|

E|--------------------------------------------------|
B|--------------------------------------------------|
G|--------------------------------------------------|
D|---------2----------------------------------------|
A|-----------------------------2------5-------------|
E|--0--0-------3--3-----5--------------------0--0---|

E|--------------------------------------------------|
B|--------------------------------------------------|
G|--------------------------------------------------|
D|---------2----------------------------------------|
A|-----------------------------2--------------------|
E|--0--0-------3--3-----5------------5--------0--0--|

E|--------------------------------------------------|
B|--------------------------------------------------|
G|--------------------------------------------------|
D|---------2--2---2--2----2------1------------------|
A|--------------------------------------------------|
E|--------------------------------------------------|

[Riff 1]

Em
Acho que fui longe demais
Descarreguei e me perdi
É tão difícil se localizar quando os mapas tão contra você

[Tab - Riff 2]

E|--------------------------------------------------|
B|--------------------------------------------------|
G|--------------------------------------------------|
D|--------------2-----------------------------------|
A|--------------------------------------------------|
E|--0-----3--------0-----3-----7------5-------------|

C                            B          
Sou incapaz de terminar o que eu comecei

C                             B     
Sou incapaz de começar o que não terminei

[Refrão]

C   Em       G                B     
Sabe, é devagar, um passo de cada vez

C   Em       G                B     
Vou fazer o mínimo e aos poucos, eu volto a ser

C   Em       G                B     
Sabe, é devagar, um passo de cada vez

C     Em       G              B     
Vou fazer o mínimo e aos poucos

Reaprender (a viver)

[Riff 1]

Em                                      Em6+  (A7 Em)
Às vezes a gente demora pra se tocar, pra se cuidar

C                            Am
E quase desiste e deixa tudo pros abutres

[Tab - Riff 2]

E|------------------------------------------------|
B|------------------------------------------------|
G|------------------------------------------------|
D|--------------2---------------------------------|
A|------------------------------------------------|
E|--0-----3--------0-----3-----7------5-----------|

C                            B          
Sou incapaz de terminar o que eu comecei

C                             B     
Sou incapaz de começar o que não terminei

[Refrão]

C  Em       G             B     
Sabe, é devagar, um passo de cada vez
C  Em       G             B     
Vou fazer o mínimo e aos poucos, eu volto a ser
C  Em       G             B     
Sabe, é devagar um passo, de cada vez
C  Em       G             B     
Só fazer o mínimo e aos poucos tu volta
C                      Em
Repete pra mim (repete pra mim)
                      G
Eu volto a ser (eu volto a ser)
                         B
Quando eu quiser (quando eu quiser)
C                Em
Repete pra mim (repete pra mim)
                  G
Eu volto a ser (eu volto a ser)
                   B
Quando eu quiser (quando eu quiser)
C   Em        G        B
Sabe, é devagar, um passo de cada vez
C     Em           G
Tudo bem se recompor
          B
E aos poucos, tu volta a ser

( Em  C  G  B )

Tu volta a ser

Sou incapaz de terminar o que eu comecei

O que eu comecei
00:00 / 00:00
Outros vídeos desta música
Repetir
Outros vídeos desta música
3.184 exibições
    • ½ Tom
    • A
    • Bb
    • B
    • C
    • Db
    • D
    • Eb
    • E
    • F
    • F#
    • G
    • Ab
  • Adicionar à lista

Afinação da cifra

Afinador online

    0 comentários

    Ver todos os comentários

    Entre para o Cifra Club PRO

    Tenha acesso a benefícios exclusivos no App e no Site

    • Chega de anúncios

    • Mais recursos no app do Afinador

    • Atendimento Prioritário

    • Aumente seu limite de lista

    • Ajude a produzir mais conteúdo

    00:00 / 00:00

    Cifra Club Pro

    Aproveite o Cifra Club com benefícios exclusivos e sem anúncios
    Cifra Club Pro
    Aproveite o Cifra Club com benefícios exclusivos e sem anúncios
    OK