Cifra Club

Bonsai

Supercombo

Cifra: Principal (violão e guitarra)
Selo Cifra Club: esta cifra foi revisada para atender aos critérios oficiais da nossa Equipe de Qualidade.
tom: Dm
               Am
Vou fazer um chá com umas
           D9
Plantas ornamentais
    F                          C9
Sentar nessa varanda na minha mente
                Bb5
Com os meus bonsais
    Am                D9
Perguntar para os passarinhos
 F                    C9
Como os pombos voam e que horas
             Bb5
Eles vão cantar
Am               D9
Esse crânio é o meu refúgio
 F                    C9
Ninguém me impede de meditar

    Bb5                   Bb5
Um dia eu me sequestrei fui

Meu cativeiro
 Bb5            Bb5    Bb5      Bb5
Loucura desse mundo não é pra mim

               Am      D9
Eu prefiro a minha cama
               F       C
Botar o meu pijama e só
          Bb5  Am
Sintonizar a mente
                  D9
Morar em bangladesh
                       F
Trocar ideia com os peixe
                        C9   Bb5
Romance em filme de horror

                Am                          D9
Vão me entrevistar pra um jornal de madagascar
 F                    C9                    Bb5
Deitado nos elétrons levitando com os meus bonsais
 Am              D9
Discutindo sobre o futuro
 F
Com leões marinhos
 C9
Lagartixas, pombos
      Bb5
E gambás
Am            D9
Esse crânio é o meu refúgio
 F
Ninguém me impede
 C9             Bb5
Ninguém me impede
Am          D9           F
Esse crânio é o meu refúgio morpheus
  C9                 Bb5
Mandou eu nunca acordar
    Bb5                   Bb5
Um dia eu me sequestrei fui
Meu cativeiro
 Bb5            Bb5    Bb5      Bb5
Loucura desse mundo não é pra mim

               Am      D9
Eu prefiro a minha cama
               F       C9
Botar o meu pijama e só
          Bb5  Am
Sintonizar a mente
                  D9
Morar em bangladesh
                       F
Trocar ideia com os peixe
                        C9   Bb5
Romance em filme de horror

[Solo]

E|------------------------------------------|
B|-----1p0-1--------------------------------|
G|-----------0-2----------------------------|
D|---------------0-0--0h2-0-----------------|
A|-0-0----------------------3-3-------------|
E|------------------------------------------|

E|--------------------1--1--0--0------------|
B|-----1p0-1----------------------2--2------|
G|-----------0-2----------------------------|
D|---------------0-0------------------------|
A|-0-0--------------------------------------|
E|------------------------------------------|

E|------------------------------------------|
B|-----1p0-1--------------------------------|
G|-----------0-2----------------------------|
D|---------------0-0--0h2-0-----------------|
A|-0-0-----------------------3--3--1--1-----|
E|------------------------------------------|

E|------------------------------------------|
B|-----1p0--1-------------------------------|
G|------------------1p0-1-------------------|
D|------------1p0-1-------------------------|
A|-0-0--------------------------------------|
E|------------------------------------------|

               Am      D9
Eu prefiro a minha cama
               F   C9 Bb5
Botar o meu pijama
Am                  D9
Morar em bangladesh
                       F
Trocar ideia com os peixe
                        C9   Bb5
Romance em filme de horror

               Am      D9
Eu prefiro a minha cama
               F       C9
Botar o meu pijama e só
          Bb5  Am
Sintonizar a mente
                  D9
Morar em bangladesh
                       F
Trocar ideia com os peixe
                        C9  Bb5
Romance em filme de horror

Bb
Eu não saio desse coma nem à força

F        Am     D9
Eu não saio dessa cama nem à força
Bb
Eu não saio dessa cama
Outros vídeos desta música
    155.736 exibições
    • Simplificar cifra
      • ½ Tom
      • Am
      • Bbm
      • Bm
      • Cm
      • C#m
      • Dm
      • Ebm
      • Em
      • Fm
      • F#m
      • Gm
      • G#m
    • Adicionar à lista

    Afinação da cifra

    Afinador online

      0 comentários

      Ver todos os comentários

      Entre para o Cifra Club PRO

      Tenha acesso a benefícios exclusivos no App e no Site

      • Chega de anúncios

      • Badges exclusivas

      • Mais recursos no app do Afinador

      • Atendimento Prioritário

      • Aumente seu limite de lista

      • Ajude a produzir mais conteúdo

      Cifra Club Pro

      Aproveite o Cifra Club com benefícios exclusivos e sem anúncios
      Cifra Club Pro
      Aproveite o Cifra Club com benefícios exclusivos e sem anúncios
      OK