Cifra Club

Eutanásia

Supercombo

Cifra: Principal (violão e guitarra)
Selo Cifra Club: esta cifra foi revisada para atender aos critérios oficiais da nossa Equipe de Qualidade.
tom: C
[Tab - Riff 1]

E|----------------------------------|
B|----------------------------------|
G|--6--8--6--8--4--4----4-----------|
D|----------------------------------|
A|4--6--4--6--2--2------------------|
E|--------------------5---5-4-2-----|

[RIFF 1]
Todo dia o mesmo teto

Ela não aguenta mais essa horizontal (todo dia, todo dia)

Respira pelos canos e ninguém vai te ouvir gritar


A
A escuridão deve ser
F#m
Melhor que isso
E                                 Ebm7
Deixa eu decidir não quero ser submisso
A
A escuridão deve ser
F#m
Melhor que isso
E                            Ebm7
Solta minha mão deixa eu abraçar o abismo

Tab Riff 2

E|---------------------------|
B|--6--9-----6---------6--9--|
G|---------------------------|
D|---------------6-----------|
A|-4--7----4---7-----4--7----|
E|-------8--------8---------8|

[RIFF 1]
Um terno branco de aparelhos
E a festa pode começar na UTI
Respira pelos canos e ninguém vai te ouvir gritar

A
A escuridão deve ser
F#m
Melhor que isso
E                            Ebm7
Deixa eu decidir não quero ser submisso
A
A escuridão deve ser
F#m
Melhor que isso
E                               Ebm7
Solta minha mão deixa eu abraçar o abismo

E|-------------------------------------------------------------|
B|---6--9---------6----------6--9-------6--9------------6------|
G|-------------------------------------------------------------|
D|---------------------6---------------------------2-----------|
A|-4--7-------4-----7-----4--7--------4--7----4-3---3-4--------|
E|--------8-------------8---------7-8--------------------------|

E|-------------------------------------------------------------|
B|---6--9------6--------6--------------------------------------|
G|-------------------------------------------------------------|
D|-----------------------------------4-------------------------|
A|-4--7------4---5-6--4-----7-6-5------------------------------|
E|--------8-----------------------8----------------------------|

Apagar a luz deve
Ser melhor

Apagar a luz deve
Ser melhor

A
A escuridão deve ser
F#m
Melhor que isso
 E              Ebm7
Solta minha mão


A
A escuridão deve ser
F#m
Melhor que isso
E                            Ebm7
Deixa eu decidir não quero ser submisso
A
A escuridão deve ser
F#m
Melhor que isso
E                       Ebm7
Solta minha mão deixa eu abraçar o abismo
E    Cm      A
Amar o abismo
Outros vídeos desta música
23.664 exibições
    • ½ Tom
    • A
    • Bb
    • B
    • C
    • Db
    • D
    • Eb
    • E
    • F
    • F#
    • G
    • Ab
  • Adicionar à lista

Afinação da cifra

Afinador online

    0 comentários

    Ver todos os comentários

    Entre para o Cifra Club PRO

    Tenha acesso a benefícios exclusivos no App e no Site

    • Chega de anúncios

    • Mais recursos no app do Afinador

    • Atendimento Prioritário

    • Aumente seu limite de lista

    • Ajude a produzir mais conteúdo

    Cifra Club Pro

    Aproveite o Cifra Club com benefícios exclusivos e sem anúncios
    Cifra Club Pro
    Aproveite o Cifra Club com benefícios exclusivos e sem anúncios
    OK