Cifra Club

Aprenda

Guarda-Chuva

Supercombo

Cifra: Principal (violão e guitarra)
tom: D
[Intro] D  Bm  F#m  G 
        D  Bm  F#m  G 

Riff - Parte 1
E|------------------------------------------|
B|------------------------------------------|
G|------------------------------------------|
D|-----4-0-2---0---------4-0-2---0----------|
A|-----------4---2-0-----------4---2-0------|
E|-2-5---------------2-5---------------2----|

                D
Quando chove demais
                         A
E teu guarda-chuva se faleceu
       
Te deixou, de repente
               G
Nem deu tempo de dar um tchau
          Gm        D
Não há clima sem você

                          F#m
Cada pingo é um soco na alma

Por que só te fechava
                          G
Se no fundo só queria me abrigar
          Gm
Desse clima

 Bm      G  D
Deixa a chuva
     Bm     G     D          A
E o vento frio bater, te gripar
 Bm     G  D   A
Faz de conta, ah
         A
Que as nuvens vão chorar por nós algum dia

( D  Bm  F#m  G )
( D  Bm  F#m  G )

             D
É nublado demais
                             A
Acordar e sentir-se fora da matriz

Encarar o Sol, de olho aberto
       G
E simplesmente não dá
          Gm        D
Não há clima sem você

                           A
Cada pingo é um soco na alma

Por que só te fechava
                          G
Se no fundo só queria me abrigar
          Gm
Desse clima

 Bm      G  D
Deixa a chuva
     Bm     G     D        A
E o vento frio fazerem um par
 Bm     G  D   A
Faz de conta, ah
         A                              Bm  G
Que as nuvens vão chorar por nós algum dia

Riff - Parte 2
E|------------------------------------------|
B|------------------------------------------|
G|------------------------------------------|
D|-0-------------------0--------------------|
A|---0-2-0---------------0-2-0--------------|
E|---------2-------------------2------------|


D               Bm  G
O clima tá nem aí
D                   Bm  G
O tempo vai levar você
D                 A
Pra passear no vazio
                                      D   Bm  F#m  G
E a gente vai resfriando, esperando amanhecer

[Final] D  Bm  F#m  G  D

Riff - Parte Final
E|------------------------------------------|
B|------------------------------------------|
G|------------------------------------------|
D|-----4-0-2---0---------4-0-2---0----------|
A|-----------4---2-0-----------4---2-0------|
E|-2-5---------------2-5---------------2----|
Colaboração e revisão:
  • Pedro Santos
  • Gabriel Silva
3.216 exibições
    • ½ Tom
    • A
    • Bb
    • B
    • C
    • Db
    • D
    • Eb
    • E
    • F
    • F#
    • G
    • Ab
  • Adicionar à lista

    0 comentários

    Ver todos os comentários

    Conseguiu tocar?

    6 Tocaram 0 Ainda não

    Grave um vídeo tocando Guarda-Chuva e nos envie!

    00:00 / 00:00
    outros vídeos desta música
    repetir qualidade Automático
    Outros vídeos desta música
    00:00 / 00:00
    Automático

    Cifra Club Pro

    Aproveite o Cifra Club com benefícios exclusivos e sem anúncios
    Cifra Club Pro
    Aproveite o Cifra Club com benefícios exclusivos e sem anúncios
    OK