Cifra Club

Memorial

Supercombo

Cifra: Principal (violão e guitarra)
Selo Cifra Club: esta cifra foi revisada para atender aos critérios oficiais da nossa Equipe de Qualidade.
tom: Bb
Intro: ( Gm Dm Gm Dm Gm Dm  D# )


   (3x) Gm                   Dm          (1x) D#
E|--------10-13-------------------------|-------10--10----10--10-----|
B|-----11-------11----------------------|----------------------------|
G|--12-------------12-----10-----10-----|---8--8------8--8-------8---|
D|--------------------12-----12-----12--|----------------------------|
A|--------------------------------------|----------------------------|
E|--------------------------------------|----------------------------|
           

Gm    Dm        Gm     Dm
Eu furei o vermelho e fui dormir
Gm    Dm          D#
Larguei meu pé do freio
Gm            Dm      Gm     Dm
No asfalto eu consigo relaxar


Cm   Gm
     Agora é tarde
Cm                     Gm
O mundo inteiro girou e eu fiquei aqui
Cm   Gm             F
     Me deu saudade de tudo que eu não vivi
C5  D5    D#5   F5
Mas quero que você viva aí


( Gm Dm Gm Dm Gm Dm  D# ) - Repete intro


Gm    Dm        Gm     Dm
Assinei um contrato que eu não li
Gm    Dm          D#
Me prendeu no passado, acho
Gm          Dm      Gm     Dm
Culpado é o tempo que passou
Gm          Dm      D#
Culpado é o tempo que passou


Cm   Gm
     Agora é tarde
Cm                     Gm
O mundo inteiro girou e eu fiquei aqui
Cm   Gm             Cm
     Me deu saudade de tudo que eu não vivi
Gm                 Cm
Mas quero que você viva aí, viva aí
Gm              F
Me deu saudade de tudo que eu não vivi
C5  D5    D#5   F5
Mas quero que você... viva aí


      Gm
E|------------------------------------------------------------|
B|-----------------------------------------6-6-8-8-----6-6----|
G|------8-7-----6---6-7------------8-7-------------7-7--------|
D|--5-------8-5---------7-8----5-------8-5--------------------|
A|------------------------------------------------------------|
E|------------------------------------------------------------|

( Gm )
 
Gm
Ficou tão tarde, ficou tão tarde
D#7M               Cm
Que o mundo nem me viu passar
Gm
Ficou tão tarde, ficou tão tarde

      Gm           G5
E|--------------------|
B|--------------------|
G|--3--3p2------------|
D|----------3p0-------|
A|---------------5----|
E|---------------3----|

Cm   Gm
     Agora é tarde
Cm                     Gm
O mundo inteiro girou e eu fiquei aqui (parado, suspenso)
Cm   Gm             Cm
     Me deu saudade de tudo que eu não vivi
Gm                 Cm
Mas quero que você viva aí, viva aí
Gm             F
Ficou tão tarde que o mundo nem
C5  D5    D#5   F5
Me viu passar...    me viu passar.

      Gm           G5
E|--------------------|
B|--------------------|
G|--3--3p2------------|
D|----------3p0-------|
A|---------------5----|
E|---------------3----|
00:00 / 00:00
Outros vídeos desta música
Repetir
Outros vídeos desta música
9.932 exibições
    • ½ Tom
    • A
    • Bb
    • B
    • C
    • Db
    • D
    • Eb
    • E
    • F
    • F#
    • G
    • Ab
  • Adicionar à lista

Afinação da cifra

Afinador online

    0 comentários

    Ver todos os comentários

    Entre para o Cifra Club PRO

    Tenha acesso a benefícios exclusivos no App e no Site

    • Chega de anúncios

    • Mais recursos no app do Afinador

    • Atendimento Prioritário

    • Aumente seu limite de lista

    • Ajude a produzir mais conteúdo

    00:00 / 00:00

    Cifra Club Pro

    Aproveite o Cifra Club com benefícios exclusivos e sem anúncios
    Cifra Club Pro
    Aproveite o Cifra Club com benefícios exclusivos e sem anúncios
    OK