Cifra Club

Piloto Automático

Supercombo

Cifra: Principal (violão e guitarra)
Selo Cifra Club: esta cifra foi revisada para atender aos critérios oficiais da nossa Equipe de Qualidade.
tom: B
[Primeira Parte]

[Parte 1 de 3] (3x)

      D#m                     A#m
E|------------------------------------------|
B|------------------------------------------|
G|------------------------------------------|
D|------------------------------------------|
A|------9-------9-------9----4-----4-----4--|
E|-9/11---11-11---11-11----6---6-6---6-6----|

[Parte 2 de 3]

      B7M
E|------------------------------------------|
B|------------------------------------------|
G|------------------------------------------|
D|---------8-----8-----8-----8--------------|
A|---6-------6-----6-----6-----6------------|
E|-7---7-7-----7-----7-----7-----7----------|

[Parte 1 de 3]

      D#m                     A#m
E|------------------------------------------|
B|------------------------------------------|
G|------------------------------------------|
D|------------------------------------------|
A|------9-------9-------9----4-----4-----4--|
E|-9/11---11-11---11-11----6---6-6---6-6----|

[Parte 2 de 3]

      B7M
E|------------------------------------------|
B|------------------------------------------|
G|------------------------------------------|
D|---------8-----8-----8-----8--------------|
A|---6-------6-----6-----6-----6------------|
E|-7---7-7-----7-----7-----7-----7----------|

[Parte 3 de 3]

      G#9               B6
E|------------------------------------------|
B|------------------------------------------|
G|------------------------------------------|
D|---8----8---8---8--------6---6------------|
A|---6----6---6---6----6-----------6--------|
E|-4----4---4---4----7---7---7---7----------|

                  D#m            A#m
Eu nunca fiz questão de estar aqui
       D#m          A#m
Muito menos participar
        D#m               A#m  B7M
E ainda acho que o meu cotidiano

Vai me largar

    D#m           A#m
Um dia eu vou morrer
    D#m          A#m
Um dia eu chego lá
      D#m             A#m      B7M
E eu sei que o piloto automático
          G#9  B6
Vai me levar

[Refrão]

                 B7M
Eu devia sorrir mais

Abraçar meus pais
          F#             C#
Viajar o mundo e socializar
            B7M
Nunca reclamar

Só agradecer
            F#                  C#
Tudo o que vier eu fiz por merecer

                 B7M
Eu devia sorrir mais

Abraçar meus pais
          F#             C#
Viajar o mundo e socializar
            A#m
Nunca reclamar

Só agradecer
            F#
Fácil de falar, difícil fazer

( D#m  A#m ) 
( D#m  A#m ) 
( D#m  A#m ) 
( B7M )

[Segunda Parte]

            D#m               A#m
Quase toda vez que eu vou dormir
        D#m      A#m
Não consigo relaxar
       D#m            A#m         B7M
Até parece que meus travesseiros pesam
           G#9  B6
Uma tonelada

[Refrão]

                 B7M
Eu devia sorrir mais

Abraçar meus pais
          F#             C#
Viajar o mundo e socializar
            B7M
Nunca reclamar

Só agradecer
            F#                  C#
Tudo o que vier eu fiz por merecer

                 B7M
Eu devia sorrir mais

Abraçar meus pais
          F#             C#
Viajar o mundo e socializar
            B7M
Nunca reclamar

Só agradecer
            Bb5+/D
Fácil de falar, difícil fazer

                 B7M
Eu devia sorrir mais

Abraçar meus pais
          F#             C#
Viajar o mundo e socializar
            B7M
Nunca reclamar

Só agradecer
            F#                A#
Fácil de falar, difícil fazer

[Final]

[Parte 1 de 2]

       F#6            F#
E|---2-----2---2----------------------------|
B|-4-----4---4------2-----2---2-------------|
G|----------------3-----3---3---------------|
D|-----4--------------4---------------------|
A|------------------------------------------|
E|------------------------------------------|

[Parte 2 de 2]

       B7M           B7M(9)
E|---2-----2---2----------------------------|
B|-4-----4---4------2-----2---2-------------|
G|----------------3-----3---3---------------|
D|------------------------------------------|
A|-----2--------------2---------------------|
E|------------------------------------------|

Eu nunca fiz questão de existir

Não queria incomodar

Um dia eu acho um jeito de aparecer
          F#6  F#
E você notar
        B7M  B7M(9)
Você notar
        D#m  Bb5+/D  B7M
Você notar
Outros vídeos desta música
856.235 exibições
  • Simplificar cifra
    • ½ Tom
    • A
    • Bb
    • B
    • C
    • Db
    • D
    • Eb
    • E
    • F
    • F#
    • G
    • Ab
  • Adicionar à lista

Afinação da cifra

Afinador online

    0 comentários

    Ver todos os comentários

    Entre para o Cifra Club PRO

    Tenha acesso a benefícios exclusivos no App e no Site

    • Chega de anúncios

    • Mais recursos no app do Afinador

    • Atendimento Prioritário

    • Aumente seu limite de lista

    • Ajude a produzir mais conteúdo

    Capítulos
    • Tocando a música
    • Dicas Iniciais / Equipamentos
    • Acordes da música
    • Tocando a Primeira Parte
    • Primeira Parte - Parte 1 de 3
    • Primeira Parte - Parte 2 de 3
    • Primeira Parte - Parte 3 de 3
    • Acordes do Refrão
    • Tocando Refrão
    • Ritmo do Refrão
    • Tocando Segunda Parte
    • Acordes do Segundo Refrão
    • Tocando Segundo Refrão
    • Acordes do Final
    • Tocando Final
    • Final - Parte 1 de 2
    • Final - Parte 2 de 2
    • Ritmo do Final
    • Encerramento
    • Ficha Técnica

    Cifra Club Pro

    Aproveite o Cifra Club com benefícios exclusivos e sem anúncios
    Cifra Club Pro
    Aproveite o Cifra Club com benefícios exclusivos e sem anúncios
    OK