Cifra Club

Robozin

Supercombo

Cifra: Principal (violão e guitarra)
Selo Cifra Club: esta cifra foi revisada para atender aos critérios oficiais da nossa Equipe de Qualidade.
tom: Am
Am        C     Dm       F
Aguenta o peso, segura a onda
Am     C    C      Dm
Sem chorar, sem chorar
 Dm       F
(Pequeno robozin)

Am    C    C     Dm
Faz assim, faz assado
Dm     F        F    Am
Imaginação, vai pelo ralo
Am     C       Dm
Internaliza sempre
Dm           F        Am
Te ensinaram tudo errado
Am      C    C    Dm
Deixa assim, faz igual
Dm     F         Am
Ao coleguinha do lado
Am      C       Dm
Que vai ser sucesso
Dm           F          Am
O mundo quer você quadrado

Am      C        Dm          F          Am
O tempo vai te rolar do alto do morro e sim
Am          C        Dm
Tuas quinas vão machucar
Dm         F
Se prepara robozin
Am      C        Dm          F          Am
O tempo vai te rolar do alto do morro e sim
Am          C        Dm
Tuas quinas vão machucar
Dm        F
Abra esse teu mundin
Dm         F
Se prepara robozin

Am    C    C     Dm
Faz assim, faz assado
Dm     F        F    Am
Imaginação, vai pelo ralo
Am     C       Dm
Internaliza sempre
Am          C           Dm       F Am
Te disseram que você tá sempre errado
Am      C    C    Dm
Deixa assim, faz igual
Dm     F         Am
Ao coleguinha do lado
Am      C       Dm
Que vai ser sucesso
Dm           F          Am
O mundo quer você quadrado

Am      C        Dm          F          Am
O tempo vai te rolar do alto do morro e sim 
Am          C        Dm
Tuas quinas vão machucar
Dm         F
Se prepara robozin
Am      C        Dm          F          Am
O tempo vai te rolar do alto do morro e sim
Am          C        Dm
Tuas quinas vão machucar
Dm        F
Abra esse teu mundin

E|----------------------------------|
B|----------------------------------|
G|-2-----1--------------------------|
D|---------------3-----2------------|
A|----------------------------------|
E|----------------------------------|

E|----------------------------------|
B|----------------------------------|
G|----------------------------------|
D|-0----------------0---------------|
A|-------3-------3-----3--2--0------|
E|------------------------------4---|

E|----------------------------------|
B|----------------------------------|
G|-2-----4-------5--4--2--1---------|
D|----------------------------------|
A|----------------------------------|
E|----------------------------------|

E|----------------------------------|
B|----------------------------------|
G|----------------------------------|
D|-2--3--5--7--2----10--9--7--6-----|
A|----------------------------------|
E|----------------------------------|

Am      C        Dm          F          Am
O tempo vai te rolar do alto do morro e sim
Am       C       Dm
Tua lata vai amassar
Dm         F
Se prepara robozin
Am      C        Dm          F          Am
O tempo vai te rolar do alto do morro e sim
Am       C       Dm
Tua lata vai amassar
Dm        F
Abra esse teu mundin
Dm         F
Se prepara robozin
00:00 / 00:00
Outros vídeos desta música
Repetir
Outros vídeos desta música
13.866 exibições
    • ½ Tom
    • Am
    • Bbm
    • Bm
    • Cm
    • C#m
    • Dm
    • Ebm
    • Em
    • Fm
    • F#m
    • Gm
    • G#m
  • Adicionar à lista

Afinação da cifra

Afinador online

    0 comentários

    Ver todos os comentários

    Entre para o Cifra Club PRO

    Tenha acesso a benefícios exclusivos no App e no Site

    • Chega de anúncios

    • Mais recursos no app do Afinador

    • Atendimento Prioritário

    • Aumente seu limite de lista

    • Ajude a produzir mais conteúdo

    00:00 / 00:00

    Cifra Club Pro

    Aproveite o Cifra Club com benefícios exclusivos e sem anúncios
    Cifra Club Pro
    Aproveite o Cifra Club com benefícios exclusivos e sem anúncios
    OK