Cifra Club

Sol da Manhã

Supercombo

Cifra: Principal (violão e guitarra)
Selo Cifra Club: esta cifra foi revisada para atender aos critérios oficiais da nossa Equipe de Qualidade.
tom: Bb
[Riff 1]

E|------------------------------------------------|
B|------------------------------------------------|
G|-----2---2----2----0---0---0--------------------|
D|------------------------------------------------|
A|--1----1----1----1---1---1----------------------|
E|------------------------------------------------|

E|------------------------------------------------|
B|------------------------------------------------|
G|-----2---2----2----0---0---0--------------------|
D|------------------------------------------------|
A|--1----1----1----1---1---1----------------------|
E|------------------------------------------------|

[Riff 2]

E|------------------------------------------------|
B|------------------------------------------------|
G|-----2---2----2----0---0---0--------------------|
D|---1---1----1----1---1---1----------------------|
A|------------------------------------------------|
E|------------------------------------------------|

E|------------------------------------------------|
B|------------------------------------------------|
G|-----2---2----2----0---0---0--------------------|
D|---1---1----1----1---1---1----------------------|
A|------------------------------------------------|
E|------------------------------------------------|

[Riff 3]

E|------------------------------------------------|
B|------------------------------------------------|
G|-----2---------------------2--------------------|
D|---------------------------0--------------------|
A|--1------------------------1--------------------|
E|---------------------------0--------------------|

E|------------------------------------------------|
B|------------------------------------------------|
G|-----2---2----2----0---0---0--------------------|
D|------------------------------------------------|
A|--1----1----1----1---1---1----------------------|
E|------------------------------------------------|

[Riff 4]

E|------------------------------------------------|
B|------------------------------------------------|
G|-----2---2----2----0---0---0--------------------|
D|------------------------------------------------|
A|--1----1----1----1---1---1----------------------|
E|------------------------------------------------|

E|------------------------------------------------|
B|------------------------------------------------|
G|-----2-----0-------0---0---0--------------------|
D|------------------------------------------------|
A|--1----1-1-------1---1---1----------------------|
E|------------------------------------------------|

 (Riff 1)                               (Riff 2)
Como eu adoro esse fogos embelezando o céu

E|------------------------------------------------|
A|------------------------------------------------|
D|------------------------------------------------|
G|--3-5-------5-3~-3-5-------5-3------------------|
B|------3-6-3----------3---3----------------------|
E|-----------------------3------------------------|


            (Riff 1)                                     (Riff 2)
Eu quase me esqueço que você tá do meu lado exigindo atenção


E|------------------------------------------------|
A|------------------------------------------------|
D|------------------------------------------------|
G|--3-5-------5-3~-3-5-------5-3------------------|
B|------3-6-3----------3---3----------------------|
E|-----------------------3------------------------|


Que hoje esta em falta
          F5                    D#
Eu sou assim, me distraio facilmente:
      D5+
Olha lá o avião

    Gm              A#
Enquanto você me espera no escuro 
F                  Cm
Eu aproveito para tomar o sol da manhã
 Gm                 A#
Sei que o clima tá tenso e eu tô rindo
 F              Cm                D#  F#
Não consigo evitar enxergar o que é  bom

( D#5  F#5 )

E|---------------------------|
A|---------------------------|
D|---8-7~-8-5~-8-7~-8-5~-----|
G|---------------------------|
B|---------------------------|
E|---------------------------|


    (Riff 3)
As luzes refletem no seu rosto tirando a

                (Riff 2)
Minha concentração

E|------------------------------------------------|
A|------------------------------------------------|
D|------------------------------------------------|
G|--3-5-------5-3~-3-5-------5-3------------------|
B|------3-6-3----------3---3----------------------|
E|-----------------------3------------------------|

          (Riff 4)
Enquanto você se alimenta de ódio
           
                   (Riff 2)
Me preparo para juntar os teus pedaços

E|------------------------------------------------|
A|------------------------------------------------|
D|------------------------------------------------|
G|--3-5-------5-3~-3-5-------5-3------------------|
B|------3-6-3----------3---3----------------------|
E|-----------------------3------------------------|

            F5
É sempre assim 
                     D#  D5+  F5
Me distraio, me distraio

E|------------------------------------------------|
A|------------------------------------------------|
D|------------------------------------------------|
G|--3-5-------5-3~-3-5-------5-3------------------|
B|------3-6-3----------3---3----------------------|
E|-----------------------3------------------------|
 
                  D#          D5+
Me distraio facilmente: olha lá o avião

    Gm                A#
Enquanto você me espera no escuro 
F                  Cm
Eu aproveito para tomar o sol da manhã
 Gm                   A#
Sei  que o clima tá  tenso e eu tô rindo
 F                   Cm                Gm
Não  consigo  evitar enxergar o que é bom
Eu preciso, eu reclamo mas preciso de você

(G5  F5  C5 )
(Gm  G5  F5  C5 )

    D#              Gm
Enquanto você me espera no escuro 
A#                 F           Dm
Eu aproveito para tomar o sol da manhã
 D#                 Gm
Sei que o clima tá tenso e eu tô rindo 
 Dm             D#
Não consigo evitar enxergar o que é bom
Não consigo evitar enxergar
Outros vídeos desta música
222.446 exibições
  • Simplificar cifra
    • ½ Tom
    • A
    • Bb
    • B
    • C
    • Db
    • D
    • Eb
    • E
    • F
    • F#
    • G
    • Ab
  • Adicionar à lista

Afinação da cifra

Afinador online

    0 comentários

    Ver todos os comentários

    Entre para o Cifra Club PRO

    Tenha acesso a benefícios exclusivos no App e no Site

    • Chega de anúncios

    • Mais recursos no app do Afinador

    • Atendimento Prioritário

    • Aumente seu limite de lista

    • Ajude a produzir mais conteúdo

    Cifra Club Pro

    Aproveite o Cifra Club com benefícios exclusivos e sem anúncios
    Cifra Club Pro
    Aproveite o Cifra Club com benefícios exclusivos e sem anúncios
    OK