Cifra Club

Sorte e Azar

Supercombo

Cifra: Principal (violão e guitarra)
Selo Cifra Club: esta cifra foi revisada para atender aos critérios oficiais da nossa Equipe de Qualidade.
tom: Bm (forma dos acordes no tom de C#m) Afinação: D G C F A D
Intro 2x:
E|---10----10----10----10----9----9----9-------7-------4---4---4---4---4---4---4---4---|
B|------12----12----12----12---12---12---12--------------5---5---5---5---5---5---5---5-|
G|-------------------------------------------------------------------------------------|
D|-------------------------------------------------------------------------------------|
A|-------------------------------------------------------------------------------------|
E|-------------------------------------------------------------------------------------|

E|----------------------------------------------------------------------------|
B|----------------------------------------------------------------------------|
G|--4-4-4-4-4-4-4-4-4-4-4-4-4-4-4-4--4-4-4-4-4-4-4-4-4-4-4-4-4-4-4-4----------|
D|--4-4-4-4-4-4-4-4-4-4-4-4-4-4-4-4--2-2-2-2-2-2-2-2-2-2-2-2-2-2-2-2----------|
A|--2-2-2-2-2-2-2-2-2-2-2-2-2-2-2-2--2-2-2-2-2-2-2-2-2-2-2-2-2-2-2-2----------|
E|-----------------------------------2-2-2-2-2-2-2-2-2-2-2-2-2-2-2-2----------|

E|--------------------------------------------------------------------5-5--7--|
B|--------------------------------------------------------------------5-5--7--|
G|--4-4-4-4-4-4-4-4-4-4-4-4-4-4-4-4--4-4-4-4-4-4-4-4-4-4-4-4-4-4-4-4--5-5--7--|
D|--4-4-4-4-4-4-4-4-4-4-4-4-4-4-4-4--2-2-2-2-2-2-2-2-2-2-2-2-2-2-2-2--7-7--9--|
A|--2-2-2-2-2-2-2-2-2-2-2-2-2-2-2-2--2-2-2-2-2-2-2-2-2-2-2-2-2-2-2-2--7-7--9--|
E|-----------------------------------2-2-2-2-2-2-2-2-2-2-2-2-2-2-2-2----------|

Riff 1:
E|----------------------------------------------------------------------------|
B|----------------------------------------------------------------------------|
G|----------------------------------------------------9-9-9-------------------|
D|--9-9-9-9-9-9-9-9-9-9-9-9-9-9-9-9-9--11-11-12--6-6---------6-6-6-7-7-7------|
A|--9-9-9-9-9-9-9-9-9-9-9-9-9-9-9-9-9--11-11-12--6-6--7-7-7--6-6-6-7-7-7------|
E|--9-9-9-9-9-9-9-9-9-9-9-9-9-9-8-8-8--11-11-12--6-6---------6-6-6-7-7-7------|

Riff 2:
E|----------------------------------------------------------------------------|
B|----------------------------------------------------------------------------|
G|--7-7-7-7-7-7-7-7-7-7-7-7-7-7-7-7-7-7-7-7-7-7-7-7-7-7-7-7-7-7-7-------------|
D|--5-5-5-5-5-5-5-5-5-5-5-5-5-5-5-5-5-5-5-5-5-5-5-5-5-5-5-5-5-5-5-------------|
A|--5-5-5-5-5-5-5-5-5-5-5-5-5-5-5-5-5-5-5-5-5-5-5-5-5-5-5-5-5-5-5-------------|
E|--5-5-5-5-5-5-5-5-5-5-5-5-5-5-5-5-5-5-5-5-5-5-5-5-5-5-5-5-5-5-5-------------|

Riff 3:
E|----------------------------------------------------------------------------|
B|----------------------------------------------------------------------------|
G|----------------------------------------------------------------------------|
D|--9-9-9--11-11-11--6-6-6---5-5-5--9-9-9--11-11-11--2---2---2--0-------------|
A|--9-9-9--11-11-11--6-6-6---5-5-5--9-9-9--11-11-11--2---2---2--0-------------|
E|--9-9-9--11-11-11--6-6-6---5-5-5--9-9-9--11-11-11--2---2---2--0-------------|

Riff 4:
E|--7-7--7---7---7---7-7--7---7---7--7-7--7---7---7---7-7--7---7---7------------|
B|--7-7--7---7---7---7-7--7---7---7--7-7--7---7---7---7-7--7---7---7------------|
G|--7-7--7---7---7---9-9--9---9---9--7-7--7---7---7---9-9--9---9---9------------|
D|--9-9--9---9---9---9-9--9---9---9--9-9--9---9---9---9-9--9---9---9------------|
A|--9-9--9---9---9---7-7--7---7---7--9-9--9---9---9---7-7--7---7---7------------|
E|------------------------------------------------------------------------------|

Riff 5:
E|--3---3---3-3---2---2---2-2---------------------------------------------------|
B|--3---3---3-3---2---2---2-2---------------------------------------------------|
G|--4---4---4-4---3---3---3-3---4---4---4-4---2---2---2-2-----------------------|
D|--5---5---5-5---4---4---4-4---4---4---4-4---2---2---2-2-----------------------|
A|--5---5---5-5---4---4---4-4---2---2---2-2---0---0---0-0-----------------------|
E|------------------------------------------------------------------------------|

Riff 6:
E|------------------------------------------------------------------------------|
B|------------------------------------------------------------------------------|
G|----------------------4-4-4-4---2-2-2-2-----------------------4---------------|
D|--5-5-5-5---4-4-4-4---4-4-4-4---2-2-2-2--5---5-5--5-4--4-4-5--4---------------|
A|--5-5-5-5---4-4-4-4---2-2-2-2---0-0-0-0--5---5-5--5-4--4-4-2--2---------------|
E|--5-5-5-5---4-4-4-4----------------------5---5-5--5-4--4-4-2------------------|

Riff 7:
E|------------------------------------------------------------------------------|
B|------------------------------------------------------------------------------|
G|------------------------------------------------------------------------------|
D|--6-6-6-5-5-5-9-9-9-11-11-11-6-6-6-5-5-5-9-9-9-11-11-11-6-6-6-5-5-5-----------|
A|--6-6-6-5-5-5-9-9-9-11-11-11-6-6-6-5-5-5-9-9-9-11-11-11-6-6-6-5-5-5-----------|
E|--6-6-6-5-5-5-9-9-9-11-11-11-6-6-6-5-5-5-9-9-9-11-11-11-6-6-6-5-5-5-----------|

(Baixo)
Nessa vida eu já fiz
de Tudo.
E continuo a procurar
meu rumo.

(Riff 01)
Às vezes paro pra pensar
Será que alguém sentou
no meu lugar.

(Riff 02)
E não se levantou
quando me viu chegar

(Riff 03)
Eu só corro atrás,
Corra atrás de mim.
Perdi a noção,
do que é bom pra mim.

(Riff 02)
Heeeeeeeeeeeeeeeeeeeeeeeeeeeeeeeeeeeeow.

(Intro)

(RIff 04)
Até hoje eu não sei,
Qual é o meu quadrado.
E todas as direções me cercam,
Me enforcam.

(Riff 01)
Não que eu esteja reclamando
Mais esse labirinto de aflições
Me persegue

(Riff 02)
Trabalho pra pagar as contas do meu emprego


Solo
E|-----------------------|
B|--5h6-5----5h6-5--3/5--|
G|--------7-4-----7------|
D|-----------------------|
A|-----------------------|
E|-----------------------|
(o que é bom pra mim) 4x

(Riff 3)
Eu só corro atrás,
corra atrás de mim.
Perdi a noção,
do que é bom pra mim

(Riff 3)
Eu só corro atrás,
(trabalho pra pagar)
corro atrás de mim.
(as contas do meu emprego)
Perdi a noção,
(e não se levantou)
do que é bom pra mim
(quando me viu chegar)

(Riff 5)
Vou tentar saltar de bungee jump
Quando estou com alguem no meu celular
Vou gritar, até me responderem
Por que eu tenho tanta sorte?
Tanto azar?

(Riff 6)
Tanta sorte e Aa aa a a aaazar

(o que é bom pra mim) (2x)

(Riff 3)
Eu só corro atrás,
Corro atrás de mim.
Perdi a noção,
do que é bom pra mim

(Riff 3)
Eu só corro atrás,
(trabalho pra pagar)
corro atrás de mim.
(as contas do meu emprego)
Perdi a noção,
(e não se levantou)
do que é bom pra mim
(quando me viu chegar)

lá lálá

(Riff 7)
(O que é bom pra mim) (6x)
00:00 / 00:00
Outros vídeos desta música
Repetir
Outros vídeos desta música
4.444 exibições
    • ½ Tom
    • Am
    • Bbm
    • Bm
    • Cm
    • C#m
    • Dm
    • Ebm
    • Em
    • Fm
    • F#m
    • Gm
    • G#m
  • Adicionar à lista

Afinação da cifra

Afinador online

    0 comentários

    Ver todos os comentários

    Entre para o Cifra Club PRO

    Tenha acesso a benefícios exclusivos no App e no Site

    • Chega de anúncios

    • Mais recursos no app do Afinador

    • Atendimento Prioritário

    • Aumente seu limite de lista

    • Ajude a produzir mais conteúdo

    00:00 / 00:00

    Cifra Club Pro

    Aproveite o Cifra Club com benefícios exclusivos e sem anúncios
    Cifra Club Pro
    Aproveite o Cifra Club com benefícios exclusivos e sem anúncios
    OK