Cifra Club

Sozinha

Superfly

Cifra: Principal (violão e guitarra)
Selo Cifra Club: esta cifra foi revisada para atender aos critérios oficiais da nossa Equipe de Qualidade.
tom: C
Versão 1
-======-

G                   E
   Menina, se manca! Deixa de marra, deixa de manha!
G                    E
   Me mata, de beijo! Vem devagar, que eu enlouqueço!

A, C, D
         Eu vim te procurar...
A, C, D
         Eu quero é te dizer...
A, C, D                            C   G   A
         Que assim mesmo eu vou te encontrar

C      D        G       F#m     Em
  Não vou te deixar sem te dizer
C      D             G      F#m      Em
  Parece que assim mesmo eu vou te ver
A         C           D             G
  Sozinha, eu não consigo te esquecer
G                  E
  Garota, se ligue! Eu tô na sua, não me reprime!
G                    E
  Me diga, seu lance! Cê tá de onda, dê uma chance!

_________________________________________________________________



Versão 2
-======-


_____________________________________________________________________   

  Intro  2x       Riff                                            2x
e|---------||----|--------------------------------------------------||
B|---------||----|--------------------------------------------------||
G|-4---1---||----|--------------------------------------------------||
D|-5---2---||----|---------------------------------------2----------||
A|-5---2...||-7/-|-----------2--------5-3-2-----------22---5-3-2----||
E|-3...----||----|-0-0-33-55---0-0-33-------0-0-33-55------------530||

  Verso 1                      2x Pré-Refrão 3x              
e|-------------------------------||------------|-----------|
B|-------------------------------||------------|-----------|
G|-------------------------------||-22-55-7----|-55----2---|
D|-5--5--------------------------||-22-55-7----|-55-55-2---|
A|-5--5-----------2--------5-3-2-||-00-33-5...-|-33-55-0...|
E|-3--3-0-0-33-55---0-0-33-------||------------|----33-----|

  Chorus                  2x                         Verso 2    
e|--------------------0-----|-----------||---||-----|---------------|
B|--------------------0-----|-----------||-R-||-----|---------------|
G|-5---7--------------0-----|-2---5---7-||-i-||-----|---------------|
D|-5---7----------22-----22-|-2---5---7-||-f-||-----|-5-------------|
A|-3...5...-55-55-22-----22-|-0...3...5-||-f-||-----|-5-----------2-|
E|----------33-22-00-----00-|-----------||---||-15/-|-3-0-0-33-55---|
                
               2x                Final
e|---------------||------------||--------------------||
B|---------------||-Pré-Refrão-||--------------------||
G|---------------||-Refrão-----||-2----5----7--------||
D|---------------||-Intro------||-2----5----7----2~--||
A|---------5-3-2-||-Refrão-----||-0...-3...-5...-2~--||
E|--0-0-33-------||-Intro 1x---||----------------0~--||
Outros vídeos desta música
    10.192 exibições
      • ½ Tom
      • A
      • Bb
      • B
      • C
      • Db
      • D
      • Eb
      • E
      • F
      • F#
      • G
      • Ab
    • Adicionar à lista

    Afinação da cifra

    Afinador online

      0 comentários

      Ver todos os comentários

      Entre para o Cifra Club PRO

      Tenha acesso a benefícios exclusivos no App e no Site

      • Chega de anúncios

      • Badges exclusivas

      • Mais recursos no app do Afinador

      • Atendimento Prioritário

      • Aumente seu limite de lista

      • Ajude a produzir mais conteúdo

      Cifra Club Pro

      Aproveite o Cifra Club com benefícios exclusivos e sem anúncios
      Cifra Club Pro
      Aproveite o Cifra Club com benefícios exclusivos e sem anúncios
      Ops (: Contenido disponible sólo en portugués.
      OK