Cifra Club

Be Yourself

Supernova

Cifra: Principal (violão e guitarra)
Selo Cifra Club: esta cifra foi revisada para atender aos critérios oficiais da nossa Equipe de Qualidade.
tom: D
Tabbed by:chicco-22
Email:*

I tabbed this song out because I love Lukas Rossis voice and no one else has tabbed this 
yet. This is my first tab so if you have any problems or concerns please email.
Tuning:Standard

Intro:
e|-----------------------------------------------------------------------------|
B|-----------------------------------------------------------------------------|
G|-7-7-7--5-5--7---------------------------------------------------------------|
D|-7-7-7--5-5--7---------------------------------------------------------------|
A|-----------------------------------------------------------------------------|
E|-----------------------------------------------------------------------------|
     Play the intro four times then movie into the verse.

Verse:
e|-----------------------------------------------------------------------------|
B|-----------------------------------------------------------------------------|
G|-7-7--6-6--4-4-4-4-----------------------------------------------------------|
D|-7 7--6-6--4-4-4-4-----------------------------------------------------------|
A|-----------------------------------------------------------------------------|
E|-----------------------------------------------------------------------------|
   For the first verse you play this 4 times.


Pre-Chorus
e|---------------------------------------------------------------------------|
B|---------------------------------------------------------------------------|
G|---------------------------------------------------------------------------|
D|---------------------------------------------------------------------------|
A|-2-2---4-4--7-7--4-4-----2-2--4-4--7-7--4-4----2-2--4-4--7-7--4-4----------|
E|-0-0---2-2--5-5--2-2-----0-0--2-2--5-5--2-2----0-0--2-2--5-5--2-2----------|

e|-----------------------------------------------------------------------------|
B|-----------------------------------------------------------------------------|
G|-----------------------------------------------------------------------------|
D|-----------------------------------------------------------------------------|
A|-2-2--4-4---7--5--7--5--7----------------------------------------------------|
E|-0-0--2-2-\ 5--3--5--3--5----------------------------------------------------|
  The pre-chorus is pretty straight foreward.

Chorus:
I had a lot of difficulty with the chorus and it is probably not 100% but it is as 
as I could get sorry for the inconvenience.

e|-----------------------------------------------------------------------------------|
B|-----------------------------------------------------------------------------------|
G|-----------------------------------------------------------------------------------|
D|-------------------------2-------------------------------2----2---2-----2----------|
A|-77777  44444--2-2-2-----0---7777777--4444444--2-2-2 ----0----0---0-----0----------|
E|-55555--22222--0-0-0---3-----5555555--2222222--0-0-0---3----3----3----3------------|

e|-------------------------------------------------------------------------------|
B|-------------------------------------------------------------------------------|
G|-------------------------------------------------------------------------------|
D|---2--2------------------------------------------------------------------------|
A|---0--0------------------------------------------------------------------------|
E|-3---3-------------------------------------------------------------------------|


Now go to the verse but instead of playing it four times play it eight times.

PRE-CHORUS

CHORUS


Interlude:

e|------------------------------------------------------------------------------|
B|------------------------------------------------------------------------------|
G|-7-7-7-77--6-6-6-66--4-4-4-44--2-2-2-22---------------------------------------|
D|-7-7-7-77--6-6-6-66--4-4-4-44--2-2-2-22---------------------------------------|
A|------------------------------------------------------------------------------|
E|------------------------------------------------------------------------------|

Play the interlude four times then go to chorus and play the chorus twice then you can end on an A7.

Please let me know if there are any mistakes email me at *

ciao

| /  slide up
| \  slide down
| h  hammer-on
| p  pull-off
| ~  vibrato
| +  harmonic
| x  Mute note
===============================================================================
Outros vídeos desta música
    459 exibições
      • ½ Tom
      • A
      • Bb
      • B
      • C
      • Db
      • D
      • Eb
      • E
      • F
      • F#
      • G
      • Ab
    • Adicionar à lista

    Afinação da cifra

    Afinador online

      0 comentários

      Ver todos os comentários

      Conseguiu tocar?

      0Tocaram0Ainda não

      Grave um vídeo tocando Be Yourself e nos envie!

      Toque também

      1. Imagem do artista Francisca ValenzuelaRun run se fue pa'l norte Francisca Valenzuela
      2. Imagem do artista Javiera MenaCámara Lenta Javiera Mena
      3. Imagem do artista Denise RosenthalIsidora Denise Rosenthal
      4. Imagem do artista NicoleNoche Nicole

      Entre para o Cifra Club PRO

      Tenha acesso a benefícios exclusivos no App e no Site

      • Chega de anúncios

      • Badges exclusivas

      • Mais recursos no app do Afinador

      • Atendimento Prioritário

      • Aumente seu limite de lista

      • Ajude a produzir mais conteúdo

      Cifra Club Pro

      Aproveite o Cifra Club com benefícios exclusivos e sem anúncios
      Cifra Club Pro
      Aproveite o Cifra Club com benefícios exclusivos e sem anúncios
      Ops (: Contenido disponible sólo en portugués.
      OK