Cifra Club

Humanos

Supla

Cifra: Principal (violão e guitarra)
Selo Cifra Club: esta cifra foi revisada para atender aos critérios oficiais da nossa Equipe de Qualidade.
tom: Bb
ESSES HUMANOS!!!!
 G#                   Cm
Esses humanos que circulam
 G#               Cm
pela cidade ai a fora
 G#                             Cm
eu não aguento eles querem me conquistar
 G#                             Cm
eu não aguento eles querem me controlar
 G#                         Cm 
querem me obrigar a ser do jeito que eles são
  G#                     Cm
cheios de certezas e vivendo de ilusão
 G#                              Cm
mas eu não sou, nem quero ser igual a quem me diz
      G#                        Cm
que sendo igual eu posso ser feliz   

ESSES HUMANOS!!!!!!!!

       base do solo  de guitarra
           :(F Eb Cm Bb G# F)2X


E|-------------------------------------------------
B|------18-----16---11-----11----9---6-------------
G|---17-----15----12---10------8---5---------------
D|-15----11----10---8-------6----3-----------------
A|-------------------------------------------------
E|-------------------------------------------------

      base do solo de guitarra : (G F D C Bb G)2X

E|--------------------------------------------------
B|----------20------18-----15--------13----11---8---
G|------19------17-----14--------12----10----7------
D|-17-------15------12------10-----8------5---------
A|--------------------------------------------------
E|--------------------------------------------------

  
repete do inicio ao fim
 
ESSES HUMANOS!!!!!
 G#                   Cm
Esses humanos que circulam
 G#                Cm
pela cidade ai a fora
 G#                              Cm
eu não aguento eles querem me conquistar
 G#                              Cm
eu não aguemto eles querem me controlar
 G#                         Cm  
querem me obrigar a ser do jeito que eles são
 G#                     Cm           
cheios de certezas e vivendo de ilusão
 G#                             Cm
mas eu não sou, nem quero ser igual a quem me diz

 G#                            Cm
que sendo igual eu posso ser feliz 

ESSES HUMANOS!!!!!!!!!!!!!!!!!!!
Outros vídeos desta música
26.270 exibições
    • ½ Tom
    • A
    • Bb
    • B
    • C
    • Db
    • D
    • Eb
    • E
    • F
    • F#
    • G
    • Ab
  • Adicionar à lista

Afinação da cifra

Afinador online

    0 comentários

    Ver todos os comentários

    Entre para o Cifra Club PRO

    Tenha acesso a benefícios exclusivos no App e no Site

    • Chega de anúncios

    • Mais recursos no app do Afinador

    • Atendimento Prioritário

    • Aumente seu limite de lista

    • Ajude a produzir mais conteúdo

    Cifra Club Pro

    Aproveite o Cifra Club com benefícios exclusivos e sem anúncios
    Cifra Club Pro
    Aproveite o Cifra Club com benefícios exclusivos e sem anúncios
    OK