Cifra Club

Powermind

Suprema

Cifra: Principal
exibições 268
Tom: F#
(intro 2x)

eb||---------------|------------------------------------|
bb||---------------|------------------------------------|
gb||---------------|---------------------------------5--|
db||---15s----7----|---------------------------------5--|
ab||---15s----7----|--7-7-7-7-10p-7-7-7-9p-7-7-7-7-7-3--|
eb||---------------|------------------------------------|

|------------------|------------------------------------|
|------------------|------------------------------------|
|----7-------------|---------------------------------5--|
|--x-7----7--7--x--|---------------------------------5--|
|--x-5----5--5--x--|--7-7-10p-7-7-9-7-7-9p-7-7-9-7-7-3--|
|------------------|------------------------------------|

|------------------|------------------------------------|
|------------------|------------------------------------|
|----7-------------|---------------------------------5--|
|--x-7----7--7--x--|--7-7-10p-7-7-9-7-7-9p-7-7-9-7-7-3--|
|--x-5----5--5--x--|------------------------------------|
|------------------|------------------------------------|

|-----------------|----------------------------------|
|-----------------|----------------------------------|
|---7----7--7--x--|----------------------------------|
|---5----5--5--x--|--7-7-10p-7-7-9-7-7-9p-7-7-7-7----|
|-----------------|----------------------------------|
|-----------------|----------------------------------|

|----------------------------------------|
|----------------------------------------|
|--10-10-9-7-9p-7------------------------|
|-----------------9-9-10p-9-9-7-9p-7-7-7-|
|----------------------------------------|
|----------------------------------------|

(riff 1 - 2x)
|------------------------------------|------------------------------------|
|------------------------------------|------------------------------------|
|------------------------------------|------------------------------------|
|--2--2--2--3--3--3--2---------------|--2--2--2--3--3--3--2---------------|
|--2--2--2--3--3--3--2--3p-2---------|--2--2--2--3--3--3--2--3p-2---------|
|--0--0--0--1--1--1--0-------3-3-2-2-|--0--0--0--1--1--1--0-------3-3-2-2-|

|------------------------|------------------------|
|------------------------|------------------------|
|------------------------|------------------------|
|--5----5--5----5--5--5--|--5----5--7----7--7--7--|
|--3----3--3----3--3--3--|--5----5--7----7--7--7--|
|--3----3--3----3--3--3--|--3----3--5----5--5--5--|

(verse 1 - 4x)
|------------------------------------|------------------------------------|
|------------------------------------|------------------------------------|
|------------------------------------|------------------------------------|
|--2--2--2--3--3--3--2---------------|--2--2--2--3--3--3--2---------------|
|--2--2--2--3--3--3--2--3p-2---------|--2--2--2--3--3--3--2--3p-2---------|
|--0--0--0--1--1--1--0-------3-3-2-2-|--0--0--0--1--1--1--0-------3-3-2-2-|

|------------------------|------------------------|
|------------------------|------------------------|
|------------------------|------------------------|
|--5----5--5----5--5--5--|--5----5--7----7--7--7--|
|--3----3--3----3--3--3--|--5----5--7----7--7--7--|
|--3----3--3----3--3--3--|--3----3--5----5--5--5--|

(bridge)
|--------|-----|--------|---------|--------|------|
|--------|-----|--------|---------|--------|------|
|--------|-----|--------|--5---4--|--------|------|
|--7--7--|--3--|--5--5--|--5---4--|--7--7--|--3---|
|--7--7--|--3--|--5--5--|--3---2--|--7--7--|--3---|
|--5--5--|--1--|--3--3--|---------|--5--5--|--1---|

|-------------------------------------|--------------------------------------|
|-------------------------------------|--------------------------------------|
|--4----------------------------------|--------------------------------------|
|--4----------------------------------|--------------------------------------|
|--2-2-2-2-2-2-3p-2-5p-2-2-2-3p-2-2-2-|--3-3-3-5-7p-5p-3-3-5-5-5-7-9p-7p-5-5-|
|-------------------------------------|--------------------------------------|

(chorus)
|-----------------------------------------|-----------------------------------------|
|-----------------------------------------|-----------------------------------------|
|--------9--------9--------------9--------|--------7--------7--------------7--------|
|--9--9--9--9--9--9--9--9--9--9--9--9--9--|--7--7--7--7--7--7--7--7--7--7--7--7--7--|
|--7--7--7--7--7--7--7--7--7--7--7--7--7--|--5--5--5--5--5--5--5--5--5--5--5--5--5--|
|-----------------------------------------|-----------------------------------------|

|--------------------------------------|--------------------------------------|
|--------------------------------------|--------------------------------------|
|--2--------------2--------------2--4--|--5--------------5--------------5--7--|
|--2--2--2--2--2--2--2--2--2--2--2--4--|--5--5--5--5--5--5--5--5--5--5--5--7--|
|--0--0--0--0--0--0--0--0--0--0--0--2--|--3--3--3--3--3--3--3--3--3--3--3--5--|
|--------------------------------------|--------------------------------------|

|-----------------------------------------|-----------------------------------------|
|-----------------------------------------|-----------------------------------------|
|--------9--------9--------------9--------|--------7--------7--------------7--------|
|--9--9--9--9--9--9--9--9--9--9--9--9--9--|--7--7--7--7--7--7--7--7--7--7--7--7--7--|
|--7--7--7--7--7--7--7--7--7--7--7--7--7--|--5--5--5--5--5--5--5--5--5--5--5--5--5--|
|-----------------------------------------|-----------------------------------------|

|--------------------------------------|---------------------------------------|
|--------------------------------------|---------------------------------------|
|--2--------------2--------------2--4--|--5--------------5--------------5------|
|--2--2--2--2--2--2--2--2--2--2--2--4--|--5--5--5--5--5--5--5--5--5--5--5--5-5-|
|--0--0--0--0--0--0--0--0--0--0--0--2--|--3--3--3--3--3--3--3--3--3--3--3--3-3-|
|--------------------------------------|---------------------------------------|

|-----|-----|-----|-----|----------------------------------------------|
|-----|-----|-----|-----|----------------------------------------------|
|-----|-----|-----|-----|--2-------------------------------------------|
|--5--|-----|--5--|--7--|--2-------------------------------------------|
|--5--|--5--|--3--|--5--|--0-0--0--0--0--0--2p-0-3p-0-0--0--2p-0-0--0--|
|--3--|--2--|--3--|--5--|----------------------------------------------|

|----------------------------------------------|
|----------------------------------------------|
|--4-------------------------------------------|
|--4-------------------------------------------|
|--2-2--2--2--2--2--3p-2-5p-2-2--2--3p-2-2--2--|
|----------------------------------------------|

|----------------------------------------------|
|----------------------------------------------|
|--5-------------------------------------------|
|--5-------------------------------------------|
|--3-3--3--3--3--3--5p-3-7p-3-3--3--5p-3-3--3--|
|----------------------------------------------|

|---------------------------------------------|
|---------------------------------------------|
|---------------------------------------------|
|---------------------------------------------|
|--3h-5-5--5--5--5--3h-5-5--5--5--5--3h-5-5-5-|
|---------------------------------------------|

|-----------------------------------------------|
|-----------------------------------------------|
|-----------------------------------------------|
|-----------------------------------------------|
|--3h-5-5--5--5--5--3h-5-5--5--5--5--3h-5-5--5--|
|-----------------------------------------------|

|--------------------------------------------|-----------------------|
|--------------------------------------------|-----------------------|
|--------------------------------------------|--\5----7----9---------|
|--------------------------------------------|--\5----7----9----9----|
|--3h-5-5--5--5--5--3h-5-5--5--5--5--3h-5-7--|--\3----5----7----9----|
|--------------------------------------------|------------------7----|

(interlude 2x)
|------------------------------------|------------------------------------|
|------------------------------------|------------------------------------|
|------------------------------------|------------------------------------|
|--2--2--2--3--3--3--2---------------|--2--2--2--3--3--3--2---------------|
|--2--2--2--3--3--3--2--3p-2---------|--2--2--2--3--3--3--2--3p-2---------|
|--0--0--0--1--1--1--0-------3-3-2-2-|--0--0--0--1--1--1--0-------3-3-2-2-|

|------------------------|------------------------|
|------------------------|------------------------|
|------------------------|------------------------|
|--5----5--5----5--5--5--|--5----5--7----7--7--7--|
|--3----3--3----3--3--3--|--5----5--7----7--7--7--|
|--3----3--3----3--3--3--|--3----3--5----5--5--5--|

(intrumental 4x)
|--------------------------|--------------------|
|--------------------------|--------------------|
|--------------------------|--------------------|
|--------6--------7--------|--9--------7-----6--|
|--7--8-----7--8-----7--8--|-----7--8-----8-----|
|--------------------------|--------------------|

|--------------------------|-----------------------|
|--------------------------|-----------------------|
|--------------------------|-----------------------|
|--------6--------7--------|--9--------7-----7--6--|
|--7--8-----7--8-----7--8--|-----7--8-----8--------|
|--------------------------|-----------------------|

(instrumental II)
|----------------------|----------------------|-------------------------|
|----------------------|----------------------|-------------------------|
|------------4---------|------------------10--|---------------------12--|
|-------6---------6----|-----7--10-----9------|------9--12------12------|
|--7-------------------|--8---------8---------|--10---------10----------|
|----------------------|----------------------|-------------------------|

|-----|----|-----|-----|-----|-----|
|-----|----|-----|-----|-----|-----|
|-----|----|-----|-----|-----|-----|
|--7--|----|--3--|--5--|--7--|-----|
|--7--|----|--3--|--5--|--7--|-----|
|--5--|----|--1--|--3--|--5--|-----|

(keyboard solo 2x)
|-------------------------------------|--------------------------------------------|
|-------------------------------------|--------------------------------------------|
|-------------------------------------|--------------------------------------------|
|----------------------------9--------|--------------9--------------------9--9--9--|
|--9----9--9--9--9--9--9--9--9--9--9--|--9--9--9--9--9--9--9--9--9--9--9--9--7--7--|
|--7----7--7--7--7--7--7--7--7--7--7--|--7--7--7--7--7--7--7--7--7--7--7--7--------|

|--------------------------------------------|--------------------------------------------|
|--------------------------------------------|--------------------------------------------|
|--------------9--------------------9--------|--------------9--------------------9--------|
|--9--9--9--9--9--9--9--9--9--9--9--9--9--9--|--9--9--9--9--9--9--9--9--9--9--9--9--9--9--|
|--7--7--7--7--7--7--7--7--7--7--7--7--7--7--|--7--7--7--7--7--7--7--7--7--7--7--7--7--7--|
|--------------------------------------------|--------------------------------------------|

|-----------------------------------------|-----------------------------------------|
|-----------------------------------------|-----------------------------------------|
|--------7--------7--------------7--------|--------7--------7--------------7--------|
|--7--7--7--7--7--7--7--7--7--7--7--7--7--|--7--7--7--7--7--7--7--7--7--7--7--------|
|--5--5--5--5--5--5--5--5--5--5--5--5--5--|--5--5--5--5--5--5--5--5--5--5--5--5--5--|
|-----------------------------------------|-----------------------------------3--3--|

|--------------------------------------------|--------------------------------------------|
|--------------------------------------------|--------------------------------------------|
|--------------------------------------------|--------------------------------------------|
|--------------5--------------------5--------|--------------7--------------------7--------|
|--5--5--5--5--5--5--5--5--5--5--5--5--5--5--|--7--7--7--7--7--7--7--7--7--7--7--7--7--7--|
|--3--3--3--3--3--3--3--3--3--3--3--3--3--3--|--5--5--5--5--5--5--5--5--5--5--5--5--5--5--|

(instrumental III)
|------------------------------|------------------------------|
|------------------------------|------------------------------|
|------------------------------|------------------------------|
|--9---------------------------|--9---------------------------|
|--9------9--9--9----9----9----|--9------9--9--9----9----9----|
|--7------7--7--7----7----7----|--7------7--7--7----7----7----|

|------------------------------|------------------------------|
|------------------------------|------------------------------|
|------------------------------|------------------------------|
|--5---------------------------|--5---------------------------|
|--5------5--5--5----5----5----|--5------5--5--5----7----5----|
|--3------3--3--3----3----3----|--3------3--3--3----5----3----|

|------------------------------|------------------------------|
|------------------------------|------------------------------|
|------------------------------|------------------------------|
|--7---------------------------|--7---------------------------|
|--7------7--7--7----7----7----|--7------7--7--7----7----7----|
|--5------5--5--5----5----5----|--5------5--5--5----5----5----|

|------------------------------|-----|
|------------------------------|-----|
|------------------------------|-----|
|--9---------------------------|--9--|
|--9------9--9--9----9----9----|--9--|
|--7------7--7--7----7----7----|--7--|

(guitar solo)
|--15p-12----------12-15p-12-15p-12----12-15p-12----12-|
|---------13----13------------------13-----------13----|
|------------12----------------------------------------|
|------------------------------------------------------|
|------------------------------------------------------|
|------------------------------------------------------|

|--15p-12----------12-15p-12-15p-12----12-15p-12----12-|
|---------13----13------------------13-----------13----|
|------------12----------------------------------------|
|------------------------------------------------------|
|------------------------------------------------------|
|------------------------------------------------------|

|--14p-11----------11-14p-11-14p-11----11-14p-11----11-|
|---------12----12------------------12-----------12----|
|------------11----------------------------------------|
|------------------------------------------------------|
|------------------------------------------------------|
|------------------------------------------------------|

|--14p-11----------11-14p-11-14p-11----11-14p-11----11-|
|---------12----12------------------12-----------12----|
|------------11----------------------------------------|
|------------------------------------------------------|
|------------------------------------------------------|
|------------------------------------------------------|

|--12p-8---------8-12p-8-12p-8----8-12p-8----8-|
|--------10---10---------------10---------10---|
|-----------9----------------------------------|
|----------------------------------------------|
|----------------------------------------------|
|----------------------------------------------|

|--12p-8---------8-12p-8-12p-8----8-12p-8----8-|
|--------10---10---------------10---------10---|
|-----------9----------------------------------|
|----------------------------------------------|
|----------------------------------------------|
|----------------------------------------------|

|--10p-7-------7-10p-7-10p-7---7-10p-7---7-|
|--------8---8---------------8---------8---|
|----------7-------------------------------|
|------------------------------------------|
|------------------------------------------|
|------------------------------------------|

|--10p-7-------7-10p-7-10p-7---7-10p-7---7-|----------------------|
|--------8---8---------------8---------8---|--8------8--------6-6-|
|----------7-------------------------------|----------------------|
|------------------------------------------|----------------------|
|------------------------------------------|----------------------|
|------------------------------------------|----------------------|

|------------------------------------|--------------4-6-8-6-4-----------|
|--8p-6-4-4-6p-4-3-3-4p-3---3--------|--------4-6-8-----------8-8-6-4-6-|
|-------------------------5---5-5-3--|--3-5-7---------------------------|
|------------------------------------|----------------------------------|
|------------------------------------|----------------------------------|
|------------------------------------|----------------------------------|

|--------------------|--13p-10----------10-13p-10-13p-10----10-13p-10----10-|
|--8------8----------|---------11----11------------------11-----------11----|
|--------------------|------------10----------------------------------------|
|--------------------|------------------------------------------------------|
|--------------------|------------------------------------------------------|
|--------------------|------------------------------------------------------|

|--13p-10----------10-13p-10-13p-10----10-13p-10----10-|
|---------11----11------------------11-----------11----|
|------------10----------------------------------------|
|------------------------------------------------------|
|------------------------------------------------------|
|------------------------------------------------------|

|--11---13---15--15---13---15--|--16---15---13--15---13---15--|
|------------------------------|------------------------------|
|------------------------------|------------------------------|
|------------------------------|------------------------------|
|------------------------------|------------------------------|
|------------------------------|------------------------------|

|--16p--13--------------13--16p--13--------------13--|
|-----------15------15---------------15------15------|
|---------------16-----------------------16----------|
|----------------------------------------------------|
|----------------------------------------------------|
|----------------------------------------------------|

|--16p--13--------------13--16p--13--------------13--|--12--------------------|
|-----------15------15---------------15------15------|-------10---------------|
|---------------16-----------------------16----------|------------9-----------|
|----------------------------------------------------|------------------------|
|----------------------------------------------------|------------------------|
|----------------------------------------------------|------------------------|

|-------------------10-12-13p-12p-10----------------|--10-------------------|
|----------10-12-13------------------13-13p-12p-10--|-------8---------------|
|--9-10-12------------------------------------------|-----------7-----------|
|---------------------------------------------------|-----------------------|
|---------------------------------------------------|-----------------------|
|---------------------------------------------------|-----------------------|

|-----------------8-10-12p-10p-8-----------------|
|---------8-10-12----------------12-12p-10p-8-10-|
|--7-9-10----------------------------------------|
|------------------------------------------------|
|------------------------------------------------|
|------------------------------------------------|

|--------------------------------|----------------------------|
|--10h-12----l-13--15---13---12--|--15---13---10---12-------|
|--------------------------------|----------------------------|
|--------------------------------|----------------------------|
|--------------------------------|----------------------------|
|--------------------------------|----------------------------|

|--12-13-12-10-12p-10----10--------------------------|
|---------------------12----12-10-12p-10-12-13-12-10-|
|----------------------------------------------------|
|----------------------------------------------------|
|----------------------------------------------------|
|----------------------------------------------------|

|-------------------------------------10-12-|--12--------------------|
|--12p-10--------------------10-12-13-------|-------10---------------|
|---------12-10-9----9-10-12----------------|------------9-----------|
|-------------------------------------------|------------------------|
|-------------------------------------------|------------------------|
|-------------------------------------------|------------------------|

|-------------------10-12-13p-12p-10----------------|
|----------10-12-13------------------13-13p-12p-10--|
|--9-10-12------------------------------------------|
|---------------------------------------------------|
|---------------------------------------------------|
|---------------------------------------------------|

|------------------------------|-------------------------12h-15-|
|--12---13---15--15---13---12--|--15---15---15---15---l---------|
|------------------------------|--------------------------------|
|------------------------------|--------------------------------|
|------------------------------|--------------------------------|
|------------------------------|--------------------------------|

      t     t             t     t                t     t
    |-----5-----|          |------5-----|         |------5-----|

|--17-19-17-19-17p-12h-15-17-15-17-15p-12------------------------|
|-----------------------------------------15h-17-19-17-19-17p-15-|
|----------------------------------------------------------------|
|----------------------------------------------------------------|
|----------------------------------------------------------------|
|----------------------------------------------------------------|

           t                t            t               t        t
    |------5------|  |------5------|  |------5-----|  |-----5-----|
|-------------------------------------------------------------------|
|--12h-15-17-15p-12-10h-12-17-12p-10-12-15-12p-10p-8-10-15-10p-8-12-|
|-------------------------------------------------------------------|
|-------------------------------------------------------------------|
|-------------------------------------------------------------------|
|-------------------------------------------------------------------|
          t             t           t           t
   |------5-----| |-----5----| |----5----| |----5----|
|------------------------------------------------------|
|--8h-10-12-10p-8-7h-8-10-8p-7-5h-7-8-7p-5-------------|
|------------------------------------------5h-7-9-7p-5-|
|------------------------------------------------------|
|------------------------------------------------------|
|------------------------------------------------------|
        t           t           t        t
   |----5----| |----5----| |----5----| |---5--|
|------------------------------------------------|------|
|------------------------------------------------|------|
|--4h-5-7-5p-4-----------------------------------|------|
|--------------5h-7-9-7p-5-4h-5-7-5p-4-----------|------|
|--------------------------------------7-9-7p-5--|--2---|
|------------------------------------------------|------|

(orchestra)
|-----|-------------------------|------------------|
|-----|-------------------------|------------------|
|-----|-------------------------|------------------|
|-----|-------------------5-----|------------5-----|
|-----|--5--5----5-----5--5--5--|--5------5--5--5--|
|-----|--3--3----3-----3--3--3--|--3------3--3--3--|

|-----|-----|-----------------------|
|-----|-----|-----------------------|
|-----|-----|-----------------------|
|--7--|-----|--9-------9------------|
|--7--|-----|--9--9----9----9----x--|
|--5--|-----|--7--7----7----7----x--|

|----------------------|-----------------|-------|
|----------------------|-----------------|-------|
|----------------------|-----------------|-------|
|--9----7----5----4----|--2--2-----0--2--|-------|
|--9----7----5----4----|--2--2-----0--2--|-------|
|--7----5----3----2----|--0--0--------0--|-------|

(verse 2 - 4x)
|------------------------------------|------------------------------------|
|------------------------------------|------------------------------------|
|------------------------------------|------------------------------------|
|--2--2--2--3--3--3--2---------------|--2--2--2--3--3--3--2---------------|
|--2--2--2--3--3--3--2--3p-2---------|--2--2--2--3--3--3--2--3p-2---------|
|--0--0--0--1--1--1--0-------3-3-2-2-|--0--0--0--1--1--1--0-------3-3-2-2-|

|------------------------|------------------------|
|------------------------|------------------------|
|------------------------|------------------------|
|--5----5--5----5--5--5--|--5----5--7----7--7--7--|
|--3----3--3----3--3--3--|--5----5--7----7--7--7--|
|--3----3--3----3--3--3--|--3----3--5----5--5--5--|

(bridge)
|--------|-----|--------|---------|--------|------|
|--------|-----|--------|---------|--------|------|
|--------|-----|--------|--5---4--|--------|------|
|--7--7--|--3--|--5--5--|--5---4--|--7--7--|--3---|
|--7--7--|--3--|--5--5--|--3---2--|--7--7--|--3---|
|--5--5--|--1--|--3--3--|---------|--5--5--|--1---|

|-------------------------------------|--------------------------------------|
|-------------------------------------|--------------------------------------|
|--4----------------------------------|--------------------------------------|
|--4----------------------------------|--------------------------------------|
|--2-2-2-2-2-2-3p-2-5p-2-2-2-3p-2-2-2-|--3-3-3-5-7p-5p-3-3-5-5-5-7-9p-7p-5-5-|
|-------------------------------------|--------------------------------------|

(chorus)
|-----------------------------------------|-----------------------------------------|
|-----------------------------------------|-----------------------------------------|
|--------9--------9--------------9--------|--------7--------7--------------7--------|
|--9--9--9--9--9--9--9--9--9--9--9--9--9--|--7--7--7--7--7--7--7--7--7--7--7--7--7--|
|--7--7--7--7--7--7--7--7--7--7--7--7--7--|--5--5--5--5--5--5--5--5--5--5--5--5--5--|
|-----------------------------------------|-----------------------------------------|

|--------------------------------------|--------------------------------------|
|--------------------------------------|--------------------------------------|
|--2--------------2--------------2--4--|--5--------------5--------------5--7--|
|--2--2--2--2--2--2--2--2--2--2--2--4--|--5--5--5--5--5--5--5--5--5--5--5--7--|
|--0--0--0--0--0--0--0--0--0--0--0--2--|--3--3--3--3--3--3--3--3--3--3--3--5--|
|--------------------------------------|--------------------------------------|

|-----------------------------------------|-----------------------------------------|
|-----------------------------------------|-----------------------------------------|
|--------9--------9--------------9--------|--------7--------7--------------7--------|
|--9--9--9--9--9--9--9--9--9--9--9--9--9--|--7--7--7--7--7--7--7--7--7--7--7--7--7--|
|--7--7--7--7--7--7--7--7--7--7--7--7--7--|--5--5--5--5--5--5--5--5--5--5--5--5--5--|
|-----------------------------------------|-----------------------------------------|

|--------------------------------------|---------------------------------------|
|--------------------------------------|---------------------------------------|
|--2--------------2--------------2--4--|--5--------------5--------------5------|
|--2--2--2--2--2--2--2--2--2--2--2--4--|--5--5--5--5--5--5--5--5--5--5--5--5-5-|
|--0--0--0--0--0--0--0--0--0--0--0--2--|--3--3--3--3--3--3--3--3--3--3--3--3-3-|
|--------------------------------------|---------------------------------------|

|-----|-----|-----|-----|----------------------------------------------|
|-----|-----|-----|-----|----------------------------------------------|
|-----|-----|-----|-----|--2-------------------------------------------|
|--5--|-----|--5--|--7--|--2-------------------------------------------|
|--5--|--5--|--3--|--5--|--0-0--0--0--0--0--2p-0-3p-0-0--0--2p-0-0--0--|
|--3--|--2--|--3--|--5--|----------------------------------------------|

|----------------------------------------------|
|----------------------------------------------|
|--4-------------------------------------------|
|--4-------------------------------------------|
|--2-2--2--2--2--2--3p-2-5p-2-2--2--3p-2-2--2--|
|----------------------------------------------|

|----------------------------------------------|
|----------------------------------------------|
|--5-------------------------------------------|
|--5-------------------------------------------|
|--3-3--3--3--3--3--5p-
Acordes para:
    Composição: Douglas Jen / Guto ViegasColaboração e revisão:
    • SupreMa

    0 comentários

      mostrar mais comentários

      Conseguiu tocar?

      0tocaram0ainda não

      Grave um vídeo tocando Powermind e mande pra gente!

      00:00 / 00:00
      outros vídeos desta música
      repetirqualidadeautomática
      Outro vídeos desta música
        00:00 / 00:00
        automática
        OK