Cifra Club

Medo

Switch Stance

Cifra: Principal (violão e guitarra)
tom: C
Cifrado por: Edilson Júnior(dEmOnIaC)
Contribuição de César Menezes Vieira(cesaR_)


   C            G          Dm               F          C            G             Dm
Jamais encontrarei o que você tem atrás da porta outra vez você me fez ficar esperando a 
        F                C                           G  
noite afora e não sei se vem , dizer como é bom

           Dm                    F               C            G               Dm  
viver as mentiras que eu sempre dizia não sei se vem abrir a porta trazer as revoltas das 
       F               Am              F            C            G               Am
águas passadas a se encontrar medo de ver, medo de ser, medo de estar em outro lugar, medo de 
    F             C              G            Am          
sem ver, medo pra ser, medo sem ter com quem ficaaaaaar 

C              G          Dm                F           C           G              Dm
Jamais encontrarei o que você tem atrás da porta outra vez você me fez ficar esperando a 
       F                 C                          G
noite afora e não sei se vem,  dizer como é bom

                 Dm                   F                 C              G
entender que as mentiras são sempre vividas, não sei se vem achar a resposta pra tanta 
 Dm                F               Am              F           C             G 
revolta das águas passadas a se encontrar medo de ver, medo de ser, medo de estar em outro 
  Am               F             C              G             Am 
lugar, medo de sem ver, medo pra ser, medo sem ter com quem ficaaaaaaaar 


        F             C            G              Am                F             C 
medo de ver, medo de ser, medo de estar em outro lugar, medo de sem ver, medo pra ser, medo 
    G              C
sem ter com quem ficaaaaaar



Riff1:
e|--------------------------------------------------------------------------------------------------|
B|--------------------------------------------------------------------------------------------------|
G|------------------------------------2-2-2h3p2--------------------------------------2-2-2h3p2------|
D|------2---5-3-2-5-3-2-5-3-2-5-3-2-3-----------3------2---5-3-2-5-3-2-5-3-2-5-3-2-3-----------3--7-|
A|-3~-3---3---------------------------------------3~-3---3----------------------------------------7-|
E|------------------------------------------------------------------------------------------------5-|

Solo1:
e|-------------------------------------------------------------------------------------------------------------|
B|----------3/5-3-5-3~--3/5---8---5h6p5--------------------------3/5-3-5-3~--3/5---8---5h6p5-------------------|
G|-4/5-4-5~-----------------5---5-------4---7---4h5p4--4/5-4-5~-----------------5---5-------4---7---4h5p4----5-|
D|----------------------------------------5---5-----------------------------------------------5---5----------5-|
A|-----------------------------------------------------------------------------------------------------------3-|
E|-------------------------------------------------------------------------------------------------------------|

Solo2 (repetir):
e|------------------------------------3/5-5-5-5-5-5/8-8-7--|
B|-------------------3/5-3-5-3-5-6-5-----------------------|
G|-4/5-4-5-4-5-7-5~----------------------------------------|
D|---------------------------------------------------------|
A|---------------------------------------------------------|
E|---------------------------------------------------------|

Solo3:
e|---------------------------------5-7----------------------------------|
B|--------------------------5-6-8------8~-5h6p5-------5---5---5---5-----|
G|-------------------4-5-7-----------------------7--5---5---5---5---5~--|
D|------------3-5-7-----------------------------------------------------|
A|------3-5-7-----------------------------------------------------------|
E|-5-7------------------------------------------------------------------|
00:00 / 00:00
Outros vídeos desta música
Repetir
Outros vídeos desta música
Composição de Icipação De Alexandre Capilé / Maurilio Fernandes
Colaboração e revisão:
  • César Vieira
4.303 exibições
    • ½ Tom
    • A
    • Bb
    • B
    • C
    • Db
    • D
    • Eb
    • E
    • F
    • F#
    • G
    • Ab
  • Adicionar à lista

    0 comentários

    Ver todos os comentários

    Conseguiu tocar?

    0 Tocaram 0 Ainda não

    Grave um vídeo tocando Medo e nos envie!

    Entre para oCifra Club PRO

    Tenha acesso a benefícios exclusivos no App e no Site

    • Chega de anúncios

    • Prioridade de compra em lançamentos

    • Mais recursos no app do Afinador

    • Atendimento Prioritário

    • Descontos nos produtos Cifra Club

    • Ajude a produzir mais conteúdo

    00:00 / 00:00

    Cifra Club Pro

    Aproveite o Cifra Club com benefícios exclusivos e sem anúncios
    Cifra Club Pro
    Aproveite o Cifra Club com benefícios exclusivos e sem anúncios
    OK